Oops, an error
Loading. Please wait.

All The Love In The World Tab

version 2
version 2

Whole song

Interactive

597 views 6 this week
no commentswrite comment
1 2 3 4 5
please rate
add to favorites
launch autoscroll
font size
0
reset
how to read this tab
guitar tuner
Tab Pro tools
  • play this tab
  • loop segment
  • change instrument
  • show fretboard
  • metronome
Autoscroll
slow
fast
+/-
esc
set tempo
stop
Contributor
Difficulty
novice
First Guitar:

Intro
E|--------------------------------|
B|---------7---9--10---9---7---9--|
G|----9---------------------------|
D|--9---9----9---9---9---9---9----| (x4)
A|--------------------------------|
E|--------------------------------|

I can't believe...
E|--------------------------|
B|--------------------------|
G|--------------------------|
D|-----6--1--------6--1-----|
A|--1--4--0--1--1--4--0--1--|
E|--0--------0--0--------0--| *Repeat each one as necesary*

All the love...
E|--------------------|
B|--------------------|
G|--------------------|
D|--4--2--4--2--4--2--|
A|--2--0--2--0--2--0--|
E|--------------------|

Time after time
E|--------------------------|
B|--------------------------|
G|--------------------------|
D|-----6--1--------6--1-----|
A|--1--4--0--1--1--4--0--1--|
E|--0--------0--0--------0--|*Repeat each one as necesary*

All the love...
E|--------------------|
B|--------------------|
G|--------------------|
D|--4--2--4--2--4--2--|
A|--2--0--2--0--2--0--|
E|--------------------|

These are the words...
E|------------------------------------|
B|----5--------5--------3--------3----|
G|---6-6------6-6------4-4------4-4---| 
D|--6---6----6---6----4---4----4---4--|
A|-4--------4--------2--------2-------|
E|------------------------------------|

Solo
E|--------------------------------------------------9-11-12-14-14b16--|
B|------------------------------------------9-10-12-------------------|
G|--11b13----------------------------8-9-11---------------------------|
D|----------11b13r11--9-9/14---9-11-----------------------------------|
A|--------------------------------------------------------------------|
E|--------------------------------------------------------------------|

E|-------------------------------------------------------------------|
B|------------------5----------------1---2-4-6-4-2------5------------|
G|--9--9-9-8------6----6-6--4------2-----2-4-6-4-2-------------------|
D|--9--9-9-8----6------6-6--4----2--------------------6---6b8-6b8-5--|
A|--7--7-7-6--4--------4-4--2--0--------------------4----------------|
E|-------------------------------------------------------------------|

E|--12--|
B|------|
G|------|
D|------|
A|------|
E|------|

I can't believe...
E|--------------------------|
B|--------------------------|
G|--------------------------|
D|-----6--1--------6--1-----|
A|--1--4--0--1--1--4--0--1--|
E|--0--------0--0--------0--|*Repeat each one as necesary*

All the love...
E|--------------------------------------------|
B|--------------------------------------------|
G|--------------------------------------------|
D|--4--2--4--2--4--2--4--2--4--2--4--2--4--2--|
A|--2--0--2--0--2--0--2--0--2--0--2--0--2--0--|
E|--------------------------------------------|

_____________________________________________________________________________

Second Guitar:

Intro
E|--------------------------------|
B|---------7---9--10---9---7---9--|
G|----9---------------------------|
D|--9---9----9---9---9---9---9----| (x12)
A|--------------------------------|
E|--------------------------------|

All the love...
E|--11--|
B|--12--|
G|--11--|
D|------|
A|------|
E|------|*Repeat as necesary*

Time after time...
E|--------------------------------|
B|---------7---9--10---9---7---9--|
G|----9---------------------------|
D|--9---9----9---9---9---9---9----| (x8)
A|--------------------------------|
E|--------------------------------|

All the love...
E|--11--|
B|--12--|
G|--11--|
D|------|
A|------|
E|------|*Repeat as necesary*

These are the words...
E|------------------------------------|
B|----5--------5--------3--------3----|
G|---6-6------6-6------4-4------4-4---| 
D|--6---6----6---6----4---4----4---4--|
A|-4--------4--------2--------2-----2-|
E|------------------------------------|

Under solo
E|--------------------------------|
B|---------7---9--10---9---7---9--|
G|----9---------------------------|
D|--9---9----9---9---9---9---9----| (x16)
A|--------------------------------|
E|--------------------------------|

All the love...
E|--11--|
B|--12--|
G|--11--|
D|------|
A|------|
E|------|*Repeat as necesary*

Final Solo *obviously incomplete*
E|-------------------------------|
B|-----------------12------------|
G|--------------15---------------|
D|--------11/13------------------|
A|-------------------------------|
E|--12/2-------------------------|

comments
We did not receive enough feedback on this tab! Please rate:
print report bad tab
1 2 3 4 5
I want to post or [tab]
guest
You may want to rate the tab now too:
select rating
Please do not post tabs as comments. Select "correction" instead!