Oops, an error
Loading. Please wait.

I Dont Wanna Lose Your Love bass

26,679 views 21 this week
1 commentread comment
1 2 3 4 5
x 9
add to favorites
×
Save as Personal and add changes to this tab that will be seen only by you. Learn more ›
×
You can save this tab as Personal to edit and correct it or add notes. All changes will be seen only by you. Learn more »
launch autoscroll
font size
0
reset
guitar tuner
edit
Autoscroll
slow
fast
+/-
esc
set tempo
stop
Author
Difficulty
I couldn’t find any tabs for the bass on this song, so I made this one…  its pretty easy 
play and the girls love this, good song to play

Bass comes in after 1st chorus.

[Verse]

G|--------------------------------------------------------------------|
D|--------------------------------------------------------------------|
A|---12/7-7-7-7-7-7-7-7-7-7--4-4-4-4-4-4-4-4-4--2-2-2-2-2-2-2-2-2-2-2-|
E|--------------------------------------------------------------------|

G|-------------------------------------------------------------|
D|-------------------------------------------------------------|
A|-7-7-7-7-7-7-7-7-7--4-4-4-4-4-4-4-4-4--2-2-2-2-2-2-2-2-2-2-2-|
E|-------------------------------------------------------------|(x2)

G|-----------------------------------------------------------|
D|-----------------------------------------------------------|
A|---0-0-0-0-0-0-0-0-0--4-4-4-4-4-4-4-4-4--2-2-2-2-2-2-2-2-2-|
E|-----------------------------------------------------------|

G|----------------------------------------------------------------|
D|----------------------------------------------------------------|
A|-4-4-4-4-4-4-4-4-4--0-0-0-0-0-0-0-0-0--2-2-2-2-2-2-2-2-2-2-2-2--|
E|----------------------------------------------------------------|

[Bridge]
(In between 2nd and 3rd verse) you play it about 8x, just listen its easy to get

G|--------------------------------------------------------------|
D|--------------------------------------------------------------|
A|--------------------------------------------------------------|
E|-----------------3-3-3-3-3-3-3-3-3-3--5-5-5-5-5-5-5-5-5-5-5-5-|

(you could make this bridge on the A string using 10(E3) and 0(E5), but I think it 
better this way)

[Outro]
(just keep repeating til the song fades out)

G|-----------------------------------------------------------------------|
D|-----------------------------------------------------------------------|
A|---4-4-4-4-4-4-4-4-4-4-4--0-0-0-0-0-0-0-0-0-0-0--2-2-2-2-2-2-2-2-2-2-2-|
E|-----------------------------------------------------------------------|



************************************

| /  Slide up

************************************

            
            
Suggest correction
Creating personal tab
Creating personal tab
You can edit any tab online and save it as your Personal.

You can edit, replace or remove any tab part or add personal notes – all changes will be seen only by you.

Personal tabs can be accessed anytime from any device, even offline.
Learn more »
comments
print report bad tab
1 comment total.
0 reply
punkrockheals 10 Apr 12, 2008 07:11 AM

not that bad.. you can play around with it with the rhythm guitar mix it up a little.. we just started covering this song..

guest
You may want to rate the tab now too:
select rating
Wanna post a correction for this tab? Suggest correction