Oops, an error
Loading. Please wait.

Say It Isnt So Tab

version 2
version 2

Whole song

Interactive

981 views 3 this week
no commentswrite comment
1 2 3 4 5
excellent!
x 1
add to favorites
launch autoscroll
font size
0
reset
how to read this tab
guitar tuner
Tab Pro tools
  • play this tab
  • loop segment
  • change instrument
  • show fretboard
  • metronome
Autoscroll
slow
fast
+/-
esc
set tempo
stop
Contributor
Difficulty
novice
E|---------------------------| 
B|---------------------------| 
G|------9-----9--------4--2--|
D|----9-----9--------4----2--|
A|--7-----7-----0--2------0--|
E|---------------------------| (x6)

E|--------------------------------------| 
B|--------------------------------------| 
G|--------6-----6--------4-------4-4-4--|
D|------6-----6--------4------4--4-4-4--|
A|--0-4-----4-----0--2------2----2-2-2--|
E|--------------------------------------| 

E|--------------|
B|--------------|  
G|--9--9--4--2--|  
D|--9--9--4--2--|  
A|--7--7--2--0--| 
E|--------------| (x2)

E|-----------------------------| 
B|-----------------------------| 
G|--------6--6--4--4--------4--|
D|----6---6--6--4--4------4----|
A|--4-----4--4--2--2--0-2------|
E|-----------------------------| 

E|-----------------------| 
B|-----------------------| 
G|--6--6--4--4--4-----2--|
D|--6--6--4--4--4-----2--|
A|--4--4--2--2--2--0--0--|
E|-----------------------| 

E|--------| 
B|--------| 
G|--------|
D|--12/3--|
A|--------|
E|--------| 

E|---------------------------| 
B|---------------------------| 
G|------9-----9--------4--2--|
D|----9-----9--------4----2--|
A|--7-----7-----0--2------0--|
E|---------------------------| (x2)

E|-------------------------------------| 
B|-------------------------------------| 
G|------6-----6--------4-----4--2-2-2--|
D|----6-----6--------4------4---2-2-2--|
A|--4-----4-----0--2------2-----0-0-0--|
E|-------------------------------------| 

E|---------------------------| 
B|---------------------------| 
G|------9-----9--------4--2--|
D|----9-----9--------4----2--|
A|--7-----7-----0--2------0--|
E|---------------------------| (x2)

E|-------------------------------------| 
B|-------------------------------------| 
G|------6-----6--------4--------4-4-4--|
D|----6-----6--------4------4---4-4-4--|
A|--4-----4-----0--2------2-----2-2-2--|
E|-------------------------------------| 

E|--------------|
B|--------------|  
G|--9--9--4--2--|  
D|--9--9--4--2--|  
A|--7--7--2--0--| 
E|--------------| (x2)

E|-----------------------------| 
B|-----------------------------| 
G|--------6--6--4--4--------4--|
D|----6---6--6--4--4------4----|
A|--4-----4--4--2--2--0-2------|
E|-----------------------------| 

E|------------------------| 
B|------------------------| 
G|--6--6--4--4--4--2-2-2--|
D|--6--6--4--4--4--2-2-2--|
A|--4--4--2--2--2--0-0-0--|
E|------------------------| 

E|--------| 
B|--------| 
G|--------|
D|--12/3--|
A|--------|
E|--------| 

E|---------------------------| 
B|---------------------------| 
G|------9-----9--------4--2--|
D|----9-----9--------4----2--|
A|--7-----7-----0--2------0--|
E|---------------------------| (x2)

E|------------------------------| 
B|------------------------------| 
G|------6-----6--------4-----4--|
D|----6-----6--------4------4---|
A|--4-----4-----0--2------2-----|
E|------------------------------| 

E|------0-----0-----0-----0--------| 
B|----0-----0-----0-----0-----0----| 
G|--0-----0-----0-----0-----0---0--|
D|---------------------------------|
A|---------------------------------|
E|---------------------------------| 

E|--------2--| 
B|--------3--| 
G|-----2--2--|
D|--4--2-----|
A|--4--0-----|
E|--2--------| (x3)



Solo *I'll put it later*
Under the solo, the other guitar play this:
E|---------------------------| 
B|---------------------------| 
G|------9-----9--------4--2--|
D|----9-----9--------4----2--|
A|--7-----7-----0--2------0--|
E|---------------------------| (x4)



E|---------------------------| 
B|---------------------------| 
G|------9-----9--------4--2--|
D|----9-----9--------4----2--|
A|--7-----7-----0--2------0--|
E|---------------------------| (x2)

E|--------------------------------------| 
B|--------------------------------------| 
G|--------6-----6--------4-------4-4-4--|
D|------6-----6--------4------4--4-4-4--|
A|--0-4-----4-----0--2------2----2-2-2--|
E|--------------------------------------| 

E|--------------|
B|--------------|  
G|--9--9--4--2--|  
D|--9--9--4--2--|  
A|--7--7--2--0--| 
E|--------------| (x2)

E|--------------------| 
B|--------------------| 
G|--------6--6--4--4--|
D|----6---6--6--4--4--|
A|--4-----4--4--2--2--|
E|--------------------| 

E|----------------------------| 
B|----------------------------| 
G|--6--6--4--4--4--2---2-2-2--|
D|--6--6--4--4--4--2---2-2-2--|
A|--4--4--2--2--2--0---0-0-0--|
E|----------------------------| 

E|---------------------------| 
B|---------------------------| 
G|------9-----9--------4--2--|
D|----9-----9--------4----2--|
A|--7-----7-----0--2------0--|
E|---------------------------| (x2)

E|-------------------------------------| 
B|-------------------------------------| 
G|------6-----6--------4-----4--2-2-2--|
D|----6-----6--------4------4---2-2-2--|
A|--4-----4-----0--2------2-----0-0-0--|
E|-------------------------------------| 

E|---------------------------| 
B|---------------------------| 
G|------9-----9--------4--2--|
D|----9-----9--------4----2--|
A|--7-----7-----0--2------0--|
E|---------------------------| (Play until the end)
comments
We did not receive enough feedback on this tab! Please rate:
print report bad tab
1 2 3 4 5
I want to post or [tab]
guest
You may want to rate the tab now too:
select rating
Please do not post tabs as comments. Select "correction" instead!