Oops, an error
Loading. Please wait.

Your Love Tab

version 1
version 1

Whole song

Interactive

356,278 views 657 this week
9 commentsread comments
1 2 3 4 5
excellent!
x 71
add to favorites
launch autoscroll
font size
0
reset
how to read this tab
guitar tuner
Tab Pro tools
  • play this tab
  • loop segment
  • change instrument
  • show fretboard
  • metronome
×
Best way to learn
"Your Love"
Autoscroll
slow
fast
+/-
esc
set tempo
stop
[Intro]

      E   C#m   B     (repeat)
e|-------------------------------------|                   
B|-------------------------------------|                   
G|----9----6----4----------------------|                   
D|----9----6----4----------------------|                   
A|----7----4----2----------------------|                   
E|-------------------------------------|                   


[Verse 1]

E             C#m           B
 Josie's on a vacation far away, come around and talk it over
E        C#m                   B
 So many things that I want to say, you know I like my girls a little bit
 A                      C#m             B
 older.  I just want to use your love tonight;
C#m              A                B
 I don't want to lose your love tonight.


[Verse 2]

E                 C#m                    B
 I ain't got many friends left to talk to, no one's around when I'm in trouble
E             C#m             B
 You know I'd do anything for you, stay the night but keep it under
 A                      C#m             B         
 cover.  I just want to use your love tonight;
C#m              A                B               
 I don't want to lose your love tonight.


[Bridge]

 Chords here are just:   G  A  (over and over).  The lead riff into
 this part is something like:

     G              A                 G             A
e|---------------|-----------------|-------------|--------------------| (2x)
B|---3-----5--7--|--5---5---5------|--3----5--7--|--8--7h8p7--5--7----|
G|---4-----------|--6---7---6---6--|--4----------|--6---------6-------|
D|---5-----------|--7-----------7--|--5----------|--7-----------------|
A|---------------|-----------------|-------------|--------------------|
E|---------------|-----------------|-------------|--------------------|


G                A
 Try to stop my  hands from shakin'
G                A
 Something in my mind's not makin' sense
G                A
 It's been awhile since we've been all alone
G                A
 I can't hide the way I'm feelin'


[Verse 3] 

E                  C#m                        B
 As you leave me please would you close the door, and don't forget what I
                                                        told you
E                C#m            B
 Just 'cause you're right - that don't mean I'm wrong, another shoulder
                                                        to cry up-
A                    C#m             B
 on.  I just want to use your love tonight;  
                                            (x3 both)
C#m              A                B          
 I don't want to lose your love tonight.   


[Outro]

C#m   A   B  (repeat and fade)  throw in an occasional Bsus

   Voice 1      Voice 2

              Lose your love.
              Lose your love.
Your love.
              Lose your love.

I don't wanna lose your love tonight.
              Lose your love.
Your love.                               (repeat and fade)
              Lose your love.
comments
print report bad tab
9 comments total. Showing first comments.
+3 reply
voldive wrote on December 6 2003, 12:00 am

my brother in law learned it a different way, i showed him this way....he now plays it this way

+1 reply
coldfry1 wrote on January 13 2008, 02:45 pm

in the outro of the song there's a guitar that does this
E---------7-7------
B-7-7-5-5-----5-5--
and just slight
variations in there...

+3 reply
tygb44 wrote on March 27 2008, 04:46 pm

this is a really good tab for a really good song.

I want to post or [tab]
guest
You may want to rate the tab now too:
select rating
Please do not post tabs as comments. Select "correction" instead!