Oops, an error
Loading. Please wait.

Ainda Me Lembro Chords

1 view 1 this week
no commentswrite comment
1 2 3 4 5
3 more votes to show rating
add to favorites
launch autoscroll
font size
0
reset
transpose
0
reset
simplify chords
display chords
guitar tuner
Autoscroll
slow
fast
+/-
esc
set tempo
stop
Help us to improve Ultimate-Guitar.com Take our survey!
×
Author
Difficulty
novice
(Along the verses the G5 chord is alternate with fingering of [Intro])

[Intro]
e|-----------------------------------------------------0-----------|
B|-----------3-------3--------3---------------3------------3-------|
G|--------0-------0--------0-------------0-------0------------0----|
D|-----3-------3--------3---------0-2-3-----3-------3--------------|
A|-----------------------------------------------------------------|
E|--3--------------------------------------------------------------|

[Verse 1]
  G5  
Ainda me lembro da temperatura fria da tua mão
 G5
Quando me abraçava. Pensei em você
 G5
E quando o inverno chegava
 G5
Eu me aconchegava no calor do peito teu. Estou pensando em você

[Chorus 1]
 F                  G
Se eu pudesse te abraçar
 F                  G
Como o vento na brisa do mar
 F              G
Se eu pudesse voltar
 F                  G
Nos teus braços me aconchegar

[Instrumental] x2
e|-----------------------------------------------------0-----------|
B|-----------3-------3--------3---------------3------------3-------|
G|--------0-------0--------0-------------0-------0------------0----|
D|-----3-------3--------3---------0-2-3-----3-------3--------------|
A|-----------------------------------------------------------------|
E|--3--------------------------------------------------------------|

[Verse 2]
  G5  
Ainda me lembro da sua voz
  G5  
E do jeito que você sorriu pra mim. Não vou me esquecer
  G5  
E quando você me ligava, me tranquilizava
  G5  
Eu só quero poder te ver. Estou pensando em você

[Chorus 2]
 F                  G
Se eu pudesse te abraçar
 F                  G
Como o vento na brisa do mar
 F              G
Se eu pudesse te encontrar
 F                  G
Nos teus braços me aconchegar

[Bridge 1]
F C G

[Vocalization 1]
F  C  G

[Bridge 2]
G   F

[Vocalization 2]
G       F
Suggest correction
Give kudos to tab author, rate the tab!
1 2 3 4 5
comments
print report bad tab
guest
You may want to rate the tab now too:
select rating
Wanna post a correction for this tab? Suggest correction