Oops, an error
Loading. Please wait.

You Are Here chords

211 views 6 this week
no commentswrite comment
1 2 3 4 5
1 last vote to show rating
add to favorites
×
Save as Personal and add changes to this tab that will be seen only by you. Learn more ›
×
You can save this tab as Personal to edit and correct it or add notes. All changes will be seen only by you. Learn more »
launch autoscroll
font size
0
reset
transpose
0
reset
simplify chords
display chords
guitar tuner
edit
Autoscroll
slow
fast
+/-
esc
set tempo
stop
Strumming
There is no strumming pattern for this song yet. and get +5 IQ
CAPO 2
ALL CHORDS RELATIVE TO CAPO

This is my first tab, so please don't be too harsh if it's not great :)

This is the version I am going off of, played on YouTube: https://www.youtube.com/watch?v=hwkF1cPXRL0
On the two long lines in the bridge, play just the top two strings over and over again if you are picking.

[CHORDS]
C  Gsus/B   F   Am
-    -      -   -
0    0      0   0 
1    1      1   1
0    0      0   0
2    0      3   2
3    2      0   0
x    x      0   x
-    -      -   -

PICKING PATTERNS (If you want to use them):
     C Picking Pattern (One Measure)
e|--------------0-----------------0------------------------------------------|
B|------1---------1-------1---------1----------------------------------------|
G|----0-------0---------0-------0--------------------------------------------|
D|---------------------------------------------------------------------------|
A|-3--------3--------3--------3----------------------------------------------|
E|---------------------------------------------------------------------------|
      Gsus/B Picking Pattern (One Measure)
e|---------------0-------------------0---------------------------------------|
B|------1----------1--------1----------1-------------------------------------|
G|----0--------0---------0--------0------------------------------------------|
D|---------------------------------------------------------------------------|
A|-2--------2---------2--------2---------------------------------------------|
E|---------------------------------------------------------------------------|
      F Picking Pattern (One Measure)
e|-----------0---------------0-----------------------------------------------|
B|-----1-------1-------1-------1---------------------------------------------|
G|---0-----0---------0-----0-------------------------------------------------|
D|-3-----3---------3-----3---------------------------------------------------|
A|---------------------------------------------------------------------------|
E|---------------------------------------------------------------------------|
      Am Picking Pattern (One Measure)
e|-----------0---------------0-----------------------------------------------|
B|-----1-------1-------1-------1---------------------------------------------|
G|---0-----0---------0-----0-------------------------------------------------|
D|-2-----2---------2-----2---------------------------------------------------|
A|---------------------------------------------------------------------------|
E|---------------------------------------------------------------------------|

[INTRO]
C  Gsus/B  F

[VERSE 1]
  Am    F
We wait
         C               Gsus/B
In anticipation here for You
   Am      F
Our hearts
                   C            Gsus/B 
Extending our welcome out to You

[CHORUS]
   F
We yearn
        C     Gsus/B
For You Lord
   F
We yearn
        Gsus/B   Am
For You Lord
         F                C    Gsus/B
For Your Spirit made us Yours
         F                C    Gsus/B
For Your Spirit made us Yours

[VERSE 2]
    Am    F
We stand
                     C        Gsus/B
In the promise we've received
          Am                                F
When Your sons and daughters gather in Your Name
        C
You are there
        Gsus/B
You are there

[INSTRUMENTAL]
F      C      Gsus/B

[BRIDGE]
          F
When Your sons and daughters gather in Your Name
        C
You are there
        Gsus/B 
You are there
          F
When Your sons and daughters gather in Your Name
        C
You are there
        Gsus/B
You are there
        G
You are here

You are here
        C
You are here
        Gsus/B
You are here

[OUTRO]
F    Am  Em 

            
            
Suggest correction
Creating personal tab
Creating personal tab
You can edit any tab online and save it as your Personal.

You can edit, replace or remove any tab part or add personal notes – all changes will be seen only by you.

Personal tabs can be accessed anytime from any device, even offline.
Learn more »
Give kudos to tab author, rate the tab!
1 2 3 4 5
comments
print report bad tab
guest
You may want to rate the tab now too:
select rating
Wanna post a correction for this tab? Suggest correction