Oops, an error
Loading. Please wait.

Heart In Your Heartbreak chords

version 1
version 1

Whole song

Interactive

421 views 3 this week
no commentswrite comment
1 2 3 4 5
1 last vote to show rating
add to favorites
×
Save as Personal and add changes to this tab that will be seen only by you. Learn more ›
×
You can save this tab as Personal to edit and correct it or add notes. All changes will be seen only by you. Learn more »
launch autoscroll
font size
0
reset
transpose
0
reset
simplify chords
display chords
guitar tuner
edit
Autoscroll
slow
fast
+/-
esc
set tempo
stop
Author
Strumming
There is no strumming pattern for this song yet. and get +5 IQ
HEART IN YOUR HEARTBREAK
by the pains of being pure at heart
from their album 'belong'

tabbed by drew (iamdrew@gmail.com)

adslam did a great job tabbing this song out, but i wanted to contribute a chord chart 
so that everyone can sing along when they want to play this awesome song


[chords]

      E A D G B e
      -----------
E5    0 7 9 9 x x
A5    5 7 7 x x x
E/G#  4 7 6 x x x
B5    7 9 9 x x x
F#5   2 4 4 x x x


[Intro]

E5


[Verse]

E5
take a look around when you're going down
            A5
'cuz you'll never feel so high
            E/G#                               B5
as when you hid in her arms in the sky and the world slept
            E5
and there's no use to say just how much it kills
        A5
when it still kills all the same
      E/G#                       B5
every thought of her name like a hand to an open flame


[Chorus]

             A5                  E5
she was the 'heart' in your heartbreak
             B5               F#5
she was the 'miss' in your mistake
       A5              E5
and no matter what you take
                      B5
you're never going to forget
            A5             E5
she was the tear in a rainstorm
            B5                        F#5
she was the promise that you would've sworn
       A5              E5
and no matter what you say
                 B5
it's never gonna come back


[Verse]

   E5
an ambulance goes by, and you wonder why
         A5
it never stops when you want it to
         E/G#                      B5
it never stops when you need it to take you away
         E5
and your friends don't understand that the world could end,
             A5
and it would feel no worse than this
      E/G#
every thought of the look in her eye
       B5
like a cold california sky


[Chorus]

             A5                  E5
she was the 'heart' in your heartbreak
             B5               F#5
she was the 'miss' in your mistake
       A5              E5
and no matter what you take
                      B5
you're never going to forget
            A5             E5
she was the tear in a rainstorm
            B5                        F#5
she was the promise that you would've sworn
       A5              E5
and no matter what you say
                 B5
it's never gonna come back


[Solo] 

e-|-------------------------------|
B-|-------------------------------|
G-|----6----8----9----14----13----|
D-|----x----x----x----x-----x-----|
A-|----4----6----7----12----11----|
E-|-------------------------------|  x2
       x8   x8   x8   x4    x4

e-|----------------------------------------------------------------------------------------------|
B-|-------------------------------------------12-------------------------------------12----------|
G-|----13-13-13-13-13-13-13-13--13--13--13-14-------13-13-13-13-13-13-13-13--13--13-----14-13----|
D-|----x-----------------------------------------------------------------------------------------|
A-|----11-11-11-11-11-11-11-11--11--11--------------11-11-11-11-11-11-11-11--11--11--------------|
E-|----------------------------------------------------------------------------------------------|

e-|----------------------------------------------------------------------------------------------|
B-|-------------------------------------------12-------------------------------------------------|
G-|----13-13-13-13-13-13-13-13--13--13--13-14-------13-13----13-13----11-11----------------------|
D-|----x--x--x--x--x--x--x--x---x---x---------------x--------x--------x--x-----------------------|
A-|----11-11-11-11-11-11-11-11--11--11--------------11-11----11-11----9--9-----------------------|
E-|----------------------------------------------------------------------------------------------|

then palm mute / bass follows A5, E5 and B5


[bridge]

       A5              E5
and no matter what you pray
                 B5
it's never gonna take the pain away
    A5            E5                 B5
and even if she'd stay you know it's wrong
       A5              E5
and no matter what you pray
                 B5
it's never gonna take the pain away
     A5            E5                   B5
'cuz even if she'd stay, you know she's gone


[chorus]

             A5                  E5
she was the 'heart' in your heartbreak
             B5               F#5
she was the 'miss' in your mistake
       A5              E5
and no matter what you take
                      B5
you're never going to forget
            A5             E5
she was the tear in a rainstorm
            B5                        F#5
she was the promise that you would've sworn
       A5              E5
and no matter what you say
                 B5
it's never gonna come back

            
            
Suggest correction
Creating personal tab
Creating personal tab
You can edit any tab online and save it as your Personal.

You can edit, replace or remove any tab part or add personal notes – all changes will be seen only by you.

Personal tabs can be accessed anytime from any device, even offline.
Learn more »
Give kudos to tab author, rate the tab!
1 2 3 4 5
comments
print report bad tab
guest
You may want to rate the tab now too:
select rating
Wanna post a correction for this tab? Suggest correction