Oops, an error
Loading. Please wait.

My Terrible Friend chords

1,283 views 1 this week
2 commentsread comments
1 2 3 4 5
2 more votes to show rating
add to favorites
×
Save as Personal and add changes to this tab that will be seen only by you. Learn more ›
×
You can save this tab as Personal to edit and correct it or add notes. All changes will be seen only by you. Learn more »
launch autoscroll
font size
0
reset
transpose
0
reset
display chords
guitar tuner
edit
Autoscroll
slow
fast
+/-
esc
set tempo
stop
Author
Difficulty
Strumming
There is no strumming pattern for this song yet. and get +5 IQ
----------------------------------------------------------------------------
         The Pains Of Being Pure At Heart - My Terrible Friend
----------------------------------------------------------------------------
Tabbed by: adslam3

Typically, Kip of Pains... plays this with power chords, but this
sounds good if you are playing solo.  Also at the bottom, I included
a different way of playing the "E B C#m A" pattern


INTRO
E B C#m A
E B C#m A
E B C#m A
E B C#m A

VERSE1
E              B     C#m                      A   
  What did you take?    ‘Cuz that’s what I’ll take,
E             B              C#m   A
  And I can’t take it without you
E             B    C#m             A
  When I feel dead,    I lay in my bed
E                 B                C#m    A
  I don’t want to lay here without you

E B C#m A
E B C#m A

E               B    C#m            A
  Now you can’t stand,  well I understand
E         B             C#m     A
  You can take my heavy hand
E                B  C#m            A
  ‘Cuz I can’t resist the touch of your lips
E            B                 C#m  A
  I feel the bliss on my fingertips – oh shit

CHORUS 1
B                               C#m
 And I’m scared that this could end
B                       C#m
 Face down in the park again
B                          C#m
 Wondering where I left my mind last night
    A              B                   E
But that’s alright, you’re my terrible friend

  B C#m A 
E B C#m A
E B C#m A
E B C#m A 

VERSE 2
E           B               C#m         A
Everyone is pretty and fun, everyone is lovely and young
E           B                    C#m
Everyone is gentle and gone, but everyone’s just everyone

CHORUS 2/END
    E                    B
And you’re the one who’s breaking me
    C#m                A
And you’re the one who just won’t leave
E                  B          C#m        A                   E
Still I don’t want it to end, you are my, you're my terrible friend

  B C#m A
E B C#m A
E B C#m A
E B C#m A

---END---


ALTERNATE CHORDS - I've seen the 2nd guitarist use these sometimes

  ***Each chords is strummed 8 times***
   E    B   C#m   A
e|-0----0----0----0--|
B|-0----0----0----0--|
G|-9----9----9----9--| Use your thumb to mute the E on the
D|-9----9----9----9--| last chord here.
A|-7----x----x----0--|
E|-0----7----9----x--|

            
            
Suggest correction
Creating personal tab
Creating personal tab
You can edit any tab online and save it as your Personal.

You can edit, replace or remove any tab part or add personal notes – all changes will be seen only by you.

Personal tabs can be accessed anytime from any device, even offline.
Learn more »
Give kudos to tab author, rate the tab!
1 2 3 4 5
comments
print report bad tab
2 comments total.
0 reply
hybby 301 Nov 09, 2015 09:14 AM

great tab. for playing on acoustic, i like firing it up to capo 4 and playing C, G, Am and F (etc)

0 reply
hybby 301 Nov 15, 2015 06:07 AM

here's the intro if anyone needs it:

INTRO

E B
e-|--------------------------------------------|-----------------------7----7-----------------|-
B-|----7--9----7--9----7--9----7--9----7----9--|----7--9----7--9----7----------9-----7--9-----|-
G-|--------------------------------------------|----------------------------------------------|-
D-|--------------------------------------------|----------------------------------------------|-
A-|--------------------------------------------|----------------------------------------------|-
E-|--------------------------------------------|----------------------------------------------|-

C#m A
e-|---------------------------------------------|----------------------------------------------|-
B-|----7--9----7--9----7--9----7--9----7--5-----|--5-------------------------------------------|-
G-|------------------------------------------6--|----------------------------------------------|-
D-|---------------------------------------------|----------------------------------------------|-
A-|---------------------------------------------|----------------------------------------------|-
E-|---------------------------------------------|----------------------------------------------|-

guest
You may want to rate the tab now too:
select rating
Wanna post a correction for this tab? Suggest correction