Oops, an error
Loading. Please wait.

A Silent Cause tab

version 1
version 1

Whole song

3,388 views 87 this week
no commentswrite comment
1 2 3 4 5
x 11
add to favorites
×
Save as Personal and add changes to this tab that will be seen only by you. Learn more ›
×
You can save this tab as Personal to edit and correct it or add notes. All changes will be seen only by you. Learn more »
launch autoscroll
font size
0
reset
how to read this tab
guitar tuner
edit
Autoscroll
slow
fast
+/-
esc
set tempo
stop
Capo 4


[Intro]

e|---------------------------------------------------------------------------|
B|-----(0)------(0)------(0)--------------------0----------------------------|
G|--------0--------0--------0-----(0)--(0)------0----------------------------|
D|---4--------2---------0-----------------------0----------------------------|
A|-------------------------------2----0---------2----------------------------|  x2
E|-----------------------------------------3---------------------------------|

e|---------------------------------------------------------------------------|
B|------0---0---0---0---0---0------------------0----0-------0----0-----------|
G|--------0-------0-------0--------0----0--------------0-------------0-------|
D|---4--------2-------0------------------------0-----0h2----4------2p0-------|
A|-------------------------------2----0--------------------------------------|  
E|-----------------------------------------3------3------3------3------------|

e|---------------------------------------------------------------------------|
B|-------0----0-------0----0-------------------------------------------------|
G|---------------0-------------0---------------------------------------------|
D|-------0-----0h2----4------2p0---------------------------------------------|
A|---------------------------------------------------------------------------|
E|---3------3------3------3--------------------------------------------------|


[Verse]

e|---------------------------------------------------------------------------|
B|-------0----0--------0----0--------0----0--------0----0--------------------|
G|---------------0-------------0-------------0-------------0-----------------|
D|-------0-----0h2-----4-----2p0-----0-----0h2-----4-----2p0-----------------|
A|---------------------------------------------------------------------------|
E|---3------3------3------3------3------3------3------3----------------------|

    I heard that you're

e|---------------------------------------------------------------------------|
B|-------1----1--------1----1--------1----1--------1----1--------------------|
G|----------------2-------------2-------------2-------------2----------------|
D|-------2------2------2------2------2------2------2------2------------------|
A|---0------0------0------0------0------0------0------0----------------------|
E|---------------------------------------------------------------------------|

   moving away

e|-------2----2--------------------------------------------------------------|
B|----------------3----0----0--------1----1--------1----1--------------------|
G|-------2------2---------------0-------------0-------------2----------------|
D|---0------0----------0------0------2------0------2------2------------------|
A|-------------------------------3------2------0------0----------------------|
E|-----------------3------3--------------------------------------------------|

    Fumbled in my pockets for a final word,

e|-----------------------------------------------------------|
B|-----3----3--------1----1--------1----1--------------------|
G|--------------4-------------2-------------2----------------|
D|-----4------4------2------2------2------2------------------|
A|--0------0------0------0------0------0---------------------|
E|-----------------------------------------------------------|

    then the rain begins

e|---------------------------------------------------------------------------|
B|-------0----0--------0----0--------0----0--------0----0--------------------|
G|---------------0-------------0-------------0-------------0-----------------|
D|-------0-----0h2-----4-----2p0-----0-----0h2-----4-----2p0-----------------|
A|---------------------------------------------------------------------------|
E|---3------3------3------3------3------3------3------3----------------------|
    
Repeat this for each verse.


[Chorus]

e|-------2----2--------2----2------------------------------------------------|
B|----------------3-------------3----1----1--------1----1--------------------|
G|-------2------2------2------2---------------0-------------0----------------|
D|---0------0------0------0----------2------2------2------2------------------|
A|-------------------------------3------3------3------3----------------------|
E|---------------------------------------------------------------------------|

    I don't want to love you, I want to learn you, but I'd love to know you well.  

e|---------------------------------------------------------------------------|
B|-------0----0--------0----0--------0----0--------0----0--------------------|
G|---------------0-------------0-------------0-------------0-----------------|
D|-------0-----0h2-----4-----2p0-----0-----0h2-----4-----2p0-----------------|
A|---------------------------------------------------------------------------|
E|---3------3------3------3------3------3------3------3----------------------|

At one point in the song, there's a little break after the last verse where the singer goes,
"this quiet desperation is killing me too." After that, you play the chorus chords for that
little bridge part.  


************************************
| (n) Ghost note
| h   Hammer-on
| p   Pull-off
************************************
Suggest correction
Creating personal tab
Creating personal tab
You can edit any tab online and save it as your Personal.

You can edit, replace or remove any tab part or add personal notes – all changes will be seen only by you.

Personal tabs can be accessed anytime from any device, even offline.
Learn more »
comments
print report bad tab
guest
You may want to rate the tab now too:
select rating
Wanna post a correction for this tab? Suggest correction