Oops, an error
Loading. Please wait.

Bloom Tab

version 1
version 1

Whole song

Interactive

Video

150,882 views 537 this week
8 commentsread comments
1 2 3 4 5
excellent!
x 167
add to favorites
launch autoscroll
font size
0
reset
how to read this tab
guitar tuner
Tab Pro tools
  • play this tab
  • loop segment
  • change instrument
  • show fretboard
  • metronome
×
Best way to learn
"Bloom"
Autoscroll
slow
fast
+/-
esc
set tempo
stop
Contributor
Capo
6th fret
I had been looking for the tabs for this song but I couldnt find one so I ended up 
tabbing it out from a tutorial on youtube. Hope this helps : 
Here is the video is want to try with it
http://www.youtube.com/watch?v=ne1jXZZmVVA

Capo on 6


E|----------------------------------------------------|
B|--1-------------1--------------------1--------------|
G|---------0------------0------------------------0----|
D|------2------------2-------------2-----------0------|
A|--0----------0------------0*--------------0h2-------|
E|----------------------------------------------------|

*There is a rest for a second before you do to the next note

E|--------------------------------------------------|
B|-----------1-----------1----------1---------------|
G|-----------------0-------------0--------0---------|
D|--------0-----------0------0h2-------2----0-------|
A|--2h3--------3------------------------------------|
E|--------------------------------------------------|

E|--------------------------------------------------------------------|
B|--3-----------3--------1------------1--------0-----------0----------|
G|--------0----------0-----------0---------0---------0-----------0----|
D|-----0----------0-----------0---------0---------0-----------0-------|
A|--------------------------------------------------------------------|
E|--3-------3------------3---------3-----------3--------3-------------|


******************************
| /  Slide Up  
| \  Slide Down  
| h  Hammer On  
| p  Pull Off  
| b  Bend 
| r  Release 
| v  Vibrato
******************************
comments
print report bad tab
8 comments total. Showing first comments.
0 reply
kikyoino wrote on January 19 2013, 08:09 pm

oh sorry forgot to mention the capo on 6 xD

+2 reply
JPili wrote on April 15 2013, 02:17 am

E|0-7-7p5\3---7-7p5\3-------------------------------------------------|
B|----------5---------3-----------------------------------------------|
G|--------------------------------------------------------------------|
D|--------------------------------------------------------------------|
A|--------------------------------------------------------------------|
E|--------------------------------------------------------------------|

This is the riff that plays the beginning :]

+1 reply
JPili wrote on April 15 2013, 03:01 am

E|0-7-7\5---7-7\3-----------------------------------------------------|
B|--------5-------3---------------------------------------------------|
G|--------------------------------------------------------------------|
D|--------------------------------------------------------------------|
A|--------------------------------------------------------------------|
E|--------------------------------------------------------------------|

I'm sorry, it's actually this :] New at this "playing by ear" thing

I want to post or [tab]
guest
You may want to rate the tab now too:
select rating
Please do not post tabs as comments. Select "correction" instead!