Oops, an error
Loading. Please wait.

Halcyon chords

version 1
version 1

Whole song

6,752 views 6 this week
2 commentsread comments
1 2 3 4 5
x 4
add to favorites
×
Save as Personal and add changes to this tab that will be seen only by you. Learn more ›
×
You can save this tab as Personal to edit and correct it or add notes. All changes will be seen only by you. Learn more »
launch autoscroll
font size
0
reset
transpose
0
reset
simplify chords
display chords
guitar tuner
edit
Autoscroll
slow
fast
+/-
esc
set tempo
stop
Author
Difficulty
Unregistered
intermediate
Strumming
There is no strumming pattern for this song yet. and get +5 IQ
Tuning: Standard
Key of D

[Chords]
D - x54x3x
Bm7 - 224232
G - 35543x
E - x221xx

(I like to play the chords palm muted, and strum accordingly during the chorus.)

[Intro]
      D                            F#m        G
e|----10------9------7-------7------5----------2---------------------------------|
B|-------------------------------------------------------------------------------|
G|----9-------7------7-------7------4----------4---------------------------------|
D|-------------------------------------------------------------------------------|
A|-------------------------------------------------------------------------------|
E|-------------------------------------------------------------------------------|

[Verse 1]
D
You're free
                     F#m   Bm7
A lover sinking in the sea
     D
And we
                         F#m    Bm7
Will let the water fill our lungs
       G
And sleep

[Chorus]
D                   F#m   Bm7
Love, we go down, we go down
D                       F#m    Bm7
Breathe, it's over now, over now
E                A    D 
We can love, we can love
E              A  Bm7  D  G
We can love, we can love
           G                              D     F#m     Bm7
And the birds will sing our song in Halcyon

[Verse 2]
You're free
A love is coming home to me
The sea
Will pull our bodies down into the deep

[Chorus 2]
Love, we go down, we go down
Breathe, it's over now, over now
We can love, we can love
We can love, we can love
And the birds will sing out song in Halcyon
And the birds will sing out song
The birds will all sing out
The birds will all sing out
The birds will sing out song
The birds will all sing out

[Outro]
We can love, we can love
We can love, we can love
And the birds will sing out song in Halcyon

            
            
Suggest correction
Creating personal tab
Creating personal tab
You can edit any tab online and save it as your Personal.

You can edit, replace or remove any tab part or add personal notes – all changes will be seen only by you.

Personal tabs can be accessed anytime from any device, even offline.
Learn more »
comments
print report bad tab
2 comments total.
0 reply
alexmon223 10 Mar 09, 2014 12:23 PM

I think that the "E" you have in the chorus should just be an A at the beginning of the 3rd and 4th lines. I think there's only A and D and then A with that walk down for that part.

0 reply
maxg321 10 Sep 12, 2014 08:39 PM

Intro

----10------9------7-------7------5----------2---------------------------------|
-------------------------------------------------------------------------------|
----11------9------7-------7------4----------4---------------------------------|
-------------------------------------------------------------------------------|
-------------------------------------------------------------------------------|
-------------------------------------------------------------------------------|

guest
Wanna post a correction for this tab? Suggest correction