Oops, an error
Loading. Please wait.

Halcyon intro tab

version 1
version 1

Intro

Whole song

4,201 views 3 this week
5 commentsread comments
1 2 3 4 5
x 6
add to favorites
×
Save as Personal and add changes to this tab that will be seen only by you. Learn more ›
×
You can save this tab as Personal to edit and correct it or add notes. All changes will be seen only by you. Learn more »
launch autoscroll
font size
0
reset
how to read this tab
guitar tuner
edit
Autoscroll
slow
fast
+/-
esc
set tempo
stop
I only have the beginning part of this song figured out! if anyone could help
me out and possibly figure out the whole song? I'd really like the chords! I
think it might be Am C and G with a capo on 6th but I can't get it to sound
right! so I'm probably wrong! I do have the lead intro figured out, though.

----10------9------7-------7------5----------2---------------------------------|
-------------------------------------------------------------------------------|
----7-------7------7-------7------5----------2---------------------------------|
-------------------------------------------------------------------------------|
-------------------------------------------------------------------------------|
-------------------------------------------------------------------------------|

This is my first Tab and I need help figuring out the rest of the song!
my email is itchythumbgun@gmail.com if you wanna contact me! (or you could
just post an updated version on here? ;))

            
            
Suggest correction
Creating personal tab
Creating personal tab
You can edit any tab online and save it as your Personal.

You can edit, replace or remove any tab part or add personal notes – all changes will be seen only by you.

Personal tabs can be accessed anytime from any device, even offline.
Learn more »
comments
print report bad tab
5 comments total. Showing first comments.
0 reply
arzza 10 Feb 12, 2013 12:40 AM

the fifth one should be

---

0 reply
arzza 10 Feb 12, 2013 12:41 AM

5 on the high e and 4 on the G string

+2 reply
JPili 72 Apr 16, 2013 12:32 AM

----10------9------7-------7------5----------2---------------------------------|
-------------------------------------------------------------------------------|
----7-------7------7-------7------6----------2---------------------------------|
-------------------------------------------------------------------------------|
-------------------------------------------------------------------------------|
-------------------------------------------------------------------------------|
I corrected the 5th one :]

guest
You may want to rate the tab now too:
select rating
Wanna post a correction for this tab? Suggest correction