Oops, an error
Loading. Please wait.

Paint Tab

version 1
version 1

Whole song

  • I wanted to make a version of "Paint" that was in ... Show more

Interactive

32,766 views 177 this week
9 commentsread comments
1 2 3 4 5
x 38
add to favorites
launch autoscroll
font size
0
reset
how to read this tab
guitar tuner
Autoscroll
slow
fast
+/-
esc
set tempo
stop
Help us to improve Ultimate-Guitar.com Take our survey!
×
Author
Difficulty
intermediate
hey guys, this is my first tab and I'm pretty sure its right. Its pretty easy other than 
it takes a while to get the same speed as the real song. Be sure to finger pick!

Tune the E string to a low D and capo the second fret.

[Intro]

e|---------------------------------------------------------|
B|---------------------------------------------------------|
G|---------------------------------------------------------|
D|---0---0---0---0---0---0---0---0---0---0---0---0---0---0-|
A|---------------------------------------------------------|
D|-9---9--\7---7---0---0---5---5---5---5---5---5---5---5---| x2


[Verse]

e|-----------------------------------------------------------------|
B|-----------------------------------------------------------------|
G|-----------------------------------------------------------------|
D|---0---0---0---0---0---0---0---0---0---0---0---0---0---0---0---0-|
A|-----------------------------------------------------------------|
D|-9---9--\7---7---0---0---5---5---5---5---5---5--/7---7---0---0---| x4

(piano signals this part)
e|-----------------------------------------------------------------|
B|-----------------------------------------------------------------|
G|-----------------------------------------------------------------|
D|---0---0---0---0---0---0---0---0---0---0---0---0---0---0-4-------|
A|-----------------------------------------------------------------|
D|-9---9--\7---7---0---0---5---5---5---5--/7---7---0---0-----------|

e|-----------------------------------------------------------------|
B|-----------------------------------------------------------------|
G|-----------------------------------------------------------------|
D|---0---0---0---0---0---0---0---0---0---0---0---0---0---0---0---0-|
A|-----------------------------------------------------------------|
D|-9---9--\7---7---0---0---5---5---5---5---5---5--/7---7---0---0---| x4

(piano signals this part)
e|-----------------------------------------------------------------|
B|-----------------------------------------------------------------|
G|-----------------------------------------------------------------|
D|---0---0---0---0---0---0---0---0---0---0---0---0---0---0-4-------|
A|-----------------------------------------------------------------|
D|-9---9--\7---7---0---0---5---5---5---5--/7---7---0---0-----------|


[Chorus]

e|---------------------------------------------------------|
B|---------------------------------------------------------|
G|---------------------------------------------------------|
D|---0---0---0---0---0---0---0---0---0---0---0---0---0---0-|
A|---------------------------------------------------------|
D|-5---5---5---5--/7---7---0---0---0---0---0---0---0---0---|

e|-------------------------------------------------|
B|-------------------------------------------------|
G|-------------------------------------------------|
D|---0---0---0---0---0---0---0---0---0---0---0---0-|
A|-------------------------------------------------|
D|-5---5---5---5---0---0---0---0---0---0---0---0---|

e|---------------------------------------------------------|
B|---------------------------------------------------------|
G|---------------------------------------------------------|
D|---0---0---0---0---0---0---0---0---0---0---0---0---0---0-|
A|---------------------------------------------------------|
D|-5---5---5---5--/7---7---0---0---0---0---0---0---0---0---|

e|---------------------------------------------------------------------|
B|---------------------------------------------------------------------|
G|---------------------------------------------------------------------|
D|---0---0---0---0---0---0---0---0---0---0---0---0---0---0---0---0-4---|
A|---------------------------------------------------------------------|
D|-5---5---5---5---5---5---5---5---0---0---0---0---0---0---0---0-------|


[Verse]

e|-----------------------------------------------------------------|
B|-----------------------------------------------------------------|
G|-----------------------------------------------------------------|
D|---0---0---0---0---0---0---0---0---0---0---0---0---0---0---0---0-|
A|-----------------------------------------------------------------|
D|-9---9--\7---7---0---0---5---5---5---5---5---5--/7---7---0---0---| x4

(piano signals this part)
e|-----------------------------------------------------------------|
B|-----------------------------------------------------------------|
G|-----------------------------------------------------------------|
D|---0---0---0---0---0---0---0---0---0---0---0---0---0---0-4-------|
A|-----------------------------------------------------------------|
D|-9---9--\7---7---0---0---5---5---5---5--/7---7---0---0-----------|

e|-----------------------------------------------------------------|
B|-----------------------------------------------------------------|
G|-----------------------------------------------------------------|
D|---0---0---0---0---0---0---0---0---0---0---0---0---0---0---0---0-|
A|-----------------------------------------------------------------|
D|-9---9--\7---7---0---0---5---5---5---5---5---5--/7---7---0---0---| x4

(piano signals this part)
e|-----------------------------------------------------------------|
B|-----------------------------------------------------------------|
G|-----------------------------------------------------------------|
D|---0---0---0---0---0---0---0---0---0---0---0---0---0---0-4-------|
A|-----------------------------------------------------------------|
D|-9---9--\7---7---0---0---5---5---5---5--/7---7---0---0-----------|


[Chorus]

e|---------------------------------------------------------|
B|---------------------------------------------------------|
G|---------------------------------------------------------|
D|---0---0---0---0---0---0---0---0---0---0---0---0---0---0-|
A|---------------------------------------------------------|
D|-5---5---5---5--/7---7---0---0---0---0---0---0---0---0---|

e|-------------------------------------------------|
B|-------------------------------------------------|
G|-------------------------------------------------|
D|---0---0---0---0---0---0---0---0---0---0---0---0-|
A|-------------------------------------------------|
D|-5---5---5---5---0---0---0---0---0---0---0---0---|

e|---------------------------------------------------------|
B|---------------------------------------------------------|
G|---------------------------------------------------------|
D|---0---0---0---0---0---0---0---0---0---0---0---0---0---0-|
A|---------------------------------------------------------|
D|-5---5---5---5--/7---7---0---0---0---0---0---0---0---0---|

e|---------------------------------------------------------------------|
B|---------------------------------------------------------------------|
G|---------------------------------------------------------------------|
D|---0---0---0---0---0---0---0---0---0---0---0---0---0---0---0---0-4---|
A|---------------------------------------------------------------------|
D|-5---5---5---5---5---5---5---5---0---0---0---0---0---0---0---0-------|


[Verse]

e|-----------------------------------------------------------------|
B|-----------------------------------------------------------------|
G|-----------------------------------------------------------------|
D|---0---0---0---0---0---0---0---0---0---0---0---0---0---0---0---0-|
A|-----------------------------------------------------------------|
D|-9---9--\7---7---0---0---5---5---5---5---5---5--/7---7---0---0---| x4

(piano signals this part)
e|-----------------------------------------------------------------|
B|-----------------------------------------------------------------|
G|-----------------------------------------------------------------|
D|---0---0---0---0---0---0---0---0---0---0---0---0---0---0-4-------|
A|-----------------------------------------------------------------|
D|-9---9--\7---7---0---0---5---5---5---5--/7---7---0---0-----------|

e|-----------------------------------------------------------------|
B|-----------------------------------------------------------------|
G|-----------------------------------------------------------------|
D|---0---0---0---0---0---0---0---0---0---0---0---0---0---0---0---0-|
A|-----------------------------------------------------------------|
D|-9---9--\7---7---0---0---5---5---5---5---5---5--/7---7---0---0---| x4

(piano signals this part)
e|-----------------------------------------------------------------|
B|-----------------------------------------------------------------|
G|-----------------------------------------------------------------|
D|---0---0---0---0---0---0---0---0---0---0---0---0---0---0-4-------|
A|-----------------------------------------------------------------|
D|-9---9--\7---7---0---0---5---5---5---5--/7---7---0---0-----------|


************************************

| /  Slide up
| \  Slide down

************************************

Thanks a lot and rate!
Suggest correction
comments
print report bad tab
9 comments total. Showing first comments.
0 reply
tigers1535 273 Apr 20, 2013 03:39 AM

Drop-D tuning always sounds lovely. Thanks for this tab; it seems perfect to me! :D

+3 reply
Pillendreher 106 Apr 29, 2014 06:46 AM

Just put the capo at the last five frets (A-D-G-B-e) and you don't need to retune.

0 reply
hardyharhar33 12 Jun 04, 2014 01:25 PM

Thanks!! That cuts out a lot of tuning time.

guest
You may want to rate the tab now too:
select rating
Wanna post a correction for this tab? Suggest correction