Oops, an error
Loading. Please wait.

Cute Tab

13 views 1 this week
no commentswrite comment
1 2 3 4 5
3 more votes to show rating
add to favorites
launch autoscroll
font size
0
reset
how to read this tab
guitar tuner
Autoscroll
slow
fast
+/-
esc
set tempo
stop
Help us to improve Ultimate-Guitar.com Take our survey!
×
Author
Difficulty
Barr all chords

Chords used: Dmaj7, Chord #2, #3

[Intro] x2
guitar 1:
e|--5-5-5-5-5-9-7-7-7----------------------------------|
B|--7-7-7-7-7-7-7-7-7----------------------------------|
G|--6-6-6-6-6-7-7-7-7----------------------------------|
D|--7-7-7-7-7-9-9-9-9----------------------------------|
A|--5-5-5-5-5-7-7-7-7----------------------------------|
E|-----------------------------------------------------|

   #1         #2  #3
e|--5-5-5-5-5-9-9-7-7-----------------------------------|
B|--7-7-7-7-7-7-7-7-7-----------------------------------|
G|--6-6-6-6-6-7-7-7-7-----------------------------------|
D|--7-7-7-7-7-9-9-9-9-----------------------------------|
A|--5-5-5-5-5-7-7-7-7-----------------------------------|
E|------------------------------------------------------| 

guitar 2:
e|-----------------------------------------------------|
B|--10-10-7-10-7-7-10-7-10-7---------------------------|
G|-----------------------------------------------------|
D|-----------------------------------------------------|
A|-----------------------------------------------------|
E|-----------------------------------------------------|

[Verse]
guitar 2: 
e|---------------------------7-7---7-7---7---7---------|
B|-10-10-7-10-7-7-10-7-10-7------7-----7---7---7-------|
G|-----------------------------------------------------|
D|-----------------------------------------------------|
A|-----------------------------------------------------|
E|-----------------------------------------------------|

[Verse 1]
Bm                                Dmaj7                             
What's so wrong to wanna fall in love with you
 
Bm                               Dmaj7
Night and day all that I think about is you

[Chorus]
Em                                Em          A     Dmaj7
You came along, I wrote a song in hopes it gets to you

[Interlude]
guitar 1:
e|--5-5-5-5-5-9-7-7-7----------------------------------|
B|--7-7-7-7-7-7-7-7-7----------------------------------|
G|--6-6-6-6-6-7-7-7-7----------------------------------|
D|--7-7-7-7-7-9-9-9-9----------------------------------|
A|--5-5-5-5-5-7-7-7-7----------------------------------|
E|-----------------------------------------------------|

   #1         #2  #3
e|--5-5-5-5-5-9-9-7-7-----------------------------------|
B|--7-7-7-7-7-7-7-7-7-----------------------------------|
G|--6-6-6-6-6-7-7-7-7-----------------------------------|
D|--7-7-7-7-7-9-9-9-9-----------------------------------|
A|--5-5-5-5-5-7-7-7-7-----------------------------------|
E|------------------------------------------------------| 

guitar 2:
e|-----------------------------------------------------|
B|--10-10-7-10-7-7-10-7-10-7---------------------------|
G|-----------------------------------------------------|
D|-----------------------------------------------------|
A|-----------------------------------------------------|
E|-----------------------------------------------------|

[Verse 2]
Bm                                 Dmaj7
I would call but I don't have a ring for you
Bm                           Dmaj7      
Catch me if you see fall in love with you

[Chorus]
Em         Dmaj7  Em                        A      Dmaj7
You came along, I wrote a song in hopes it gets to you 
Suggest correction
Give kudos to tab author, rate the tab!
1 2 3 4 5
comments
print report bad tab
guest
You may want to rate the tab now too:
select rating
Wanna post a correction for this tab? Suggest correction