Oops, an error
Loading. Please wait.

No Me Hables Tab

10 views 1 this week
no commentswrite comment
1 2 3 4 5
3 more votes to show rating
add to favorites
launch autoscroll
font size
0
reset
how to read this tab
guitar tuner
Autoscroll
slow
fast
+/-
esc
set tempo
stop
Help us to improve Ultimate-Guitar.com Take our survey!
×
[Intro]      

                                                                        si no me,
e|--0--0-----0---0----0--0-----0---0---0--0---0------------------4---------------------|
B|--0--0-----1---1----0--0-----0---0---2--2---2-----------4--4-------------------------|
G|--1--1-----2---2----1--1-----1---1---2--2---2-----------4--4-------------------------|
D|--2--2-----2---2----2--2-----2---2---2--2---2-----------4--4-------------------------|
A|--2--2--2h4-2h4-----2--2-----2---2----------------4---2------------------------------|
E|-0----------------4--------4---3---2------2----2-------------------------------------|

quieres hablar               no me hables                   porque manana  vendra
e|--0--0-----0---0----0--0-----0---0---0--0---0----------------------------------------------|
B|--0--0-----1---1----0--0-----0---0---2--2---2-----------4--4-4-4-2-2-2-2-1-1-1-1-----------|
G|--1--1-----2---2----1--1-----1---1---2--2---2-----------4--4-4-4-2-2-2-2-2-2-2-2-----------|
D|--2--2-----2---2----2--2-----2---2---2--2---2-----------4--4-4-4-2-2-2-2-2-2-2-2-----------|
A|--2--2--2h4-2h4-----2--2-----2---2----------------4---2------------------------------------|
E|-0----------------4--------4---3---2------2----2-------------------------------------------|


[Solo]

F#m, B, F#m, B, F#m, B, E6

e|-7---7-7---5-5---4-4---7-7---7-7---5--5---4-4----7-7--7-7---5-5---4--4----9------|
B|-9---9-9---7-7---5-5---9-9---9-9---7--7---5-5----9-9--9-9---7-7---5--5----9------|
G|--------------------------------------------------------------------------9------|
D|--------------------------------------------------------------------------9------|
A|---------------------------------------------------------------------------------|
E|---------------------------------------------------------------------------------|

e|------------------------------------------------------------------------------------|
B|-------99----9----------99----9/12--9----------99----9/12--9-------9----------------|
G|-99-11----11------99-11----11-----------99-11----11-------------11---11-9-11--------|
D|-----------------------------------------------------------------------------11--9--|
A|------------------------------------------------------------------------------------|
E|------------------------------------------------------------------------------------|


[Verse]

         E                     A      B
si no me quieras hablar no me hables 
        A           Am         E
porque manana vendra y no me encontraras 
      G#m                F#m            B                                           
no es que yo quiera yoir si no que quiro morir

[Instrumental]

E, A, B

[Verse]

(B)         E                 A         B
si no me quieres aqui no me desprecias

porque yo se que yo senti y no lo mereces

no es que me quiero yoir

si no me quiero morir

G#m     G#m Gm F#m
y yo se, quiero creer
G#m      G#m Gm F#m  B
y yo se, quiero creer

[outro]

F#m, B, F#m, B, F#m, B, E6

************************************
| /   Slide up


************************************
Suggest correction
Give kudos to tab author, rate the tab!
1 2 3 4 5
comments
print report bad tab
guest
You may want to rate the tab now too:
select rating
Wanna post a correction for this tab? Suggest correction