Oops, an error
Loading. Please wait.

Bullet Tab

1,490 views 1 this week
no commentswrite comment
1 2 3 4 5
3 more votes to show rating
add to favorites
launch autoscroll
font size
0
reset
how to read this tab
guitar tuner
Autoscroll
slow
fast
+/-
esc
set tempo
stop
Help us to improve Ultimate-Guitar.com Take our survey!
×
Author
Difficulty
intermediate
Main riff:
e--------------------------------------------------------------------------|
b--------------------------------------------------------------------------|
g----------5p3---------3-5p3---------5p3---------3-5p3---------------------|
d--5p3-5p3-----5p3-5p3-------5p3-5p3-----5p3-5p3---------------------------|
a--------------------------------------------------------------3p1---------|
e------------------------------------------------------3p1-3p1-------------|

e--------------------------------------------------------------------------|
b--------------------------------------------------------------------------|
g--------------------------------------------------------------------------|
d--------------------------------------------3-3-3-3-3-3-3-3-3-3-3-3-------|
a----------1-3p1---------3p1---------1-3p1---3-3-3-3-3-3-3-3-3-3-3-3-------|
e--3p1-3p1-------3p1-3p1-----3p1-3p1---------1-1-1-1-1-1-1-1-1-1-1-1-------|

Chorus:
e--------------------------------------------------------------------------|
b--------------------------------------------------------------------------|
g--------------------------------------------------------------------------|
d--3-5-5-3-5---3-5-5-3-5---3-5-5-3-5------3-5-5-3-5---3-5-5-3-5p3-5p3------|
a--3-5-5-3-5---3-5-5-3-5---3-5-5-3-5------3-5-5-3-5---3-5-5-3--------------|
e--1-3-3-1-3---1-3-3-1-3---1-3-3-1-3------1-3-3-1-3---1-3-3-1--------------|

e--------------------------------------------------------------------------|
b--------------------------------------------------------------------------|
g-------------------------------5p3----------------------------------------|
d--3-5-5-3--5p3-5p3---3-5-5-3-5-----3-3-3-3-3-3-5-5-5-5-5-5-3-3-3-3-3-3----|
a--3-5-5-3------------3-5-5-3-5-----3-3-3-3-3-3-5-5-5-5-5-5-3-3-3-3-3-3----|
e--1-3-3-1------------1-3-3-1-3-----1-1-1-1-1-1-3-3-3-3-3-3-1-1-1-1-1-1----|

e--------------------------------------------|
b--------------------------------------------|
g----------------------------------------5---|
d--5-5-5-5-5-5-3-3-3-3-3-3-5-5-5-5-5-5---5---|
a--5-5-5-5-5-5-3-3-3-3-3-3-5-5-5-5-5-5---3---|
e--3-3-3-3-3-3-1-1-1-1-1-1-3-3-3-3-3-3-------|

Solo: variations of penatonic in G

Bridge:
e---------------------------------------------------------------------------|
b----------4-3---------------------4-3-6-4-3---4-3--------------------------|
g----2-3-5-----5-3-2---2-----2-3-5-----------5------------------------------|
d--5-----------------5---3-5------------------------888888888888777777666666|
a---------------------------------------------------888888888888777777666666|
e---------------------------------------------------666666666666555555444444|
Suggest correction
Give kudos to tab author, rate the tab!
1 2 3 4 5
comments
print report bad tab
guest
You may want to rate the tab now too:
select rating
Wanna post a correction for this tab? Suggest correction