Oops, an error
Loading. Please wait.

Carnival Of Crows Bass Tab

202 views 1 this week
no commentswrite comment
1 2 3 4 5
please rate
add to favorites
launch autoscroll
font size
0
reset
guitar tuner
Autoscroll
slow
fast
+/-
esc
set tempo
stop
Help us to improve Ultimate-Guitar.com Take our survey!
×
Author
Difficulty
intermediate
Band:      The Parlor Mob
Song:      Carnival of Crows
Album:     And You Were a Crow
Tabbed by: Joe Fourneir (Jf0urnier)

Before I go ahead with the tab, I will mind you that I may have messed up with the structure. 

BUT! I'm confident this tab is 87.3% correct.

Intro x2

G|------------|    |----------------5---|
D|------------|    |------3h5p3-5/7-----|
A|3-5-5555555-|    |3-5-5-------------5-|
E|------------| x4 |--------------------|

Verse

G|-------|  |------------|    |----------------5--|
D|-------|  |------------|    |------3h5p3-5/7----|
A|55-55-5|  |3-5-55-55-5-| x2 |3-5-5-------------5|
E|-------|  |------------|    |-------------------|


G|-------|  |----------------------------------------5-|
D|-------|  |------------3-5---------------3h5p3-5/7---|
A|55-55-5|  |3-5-55-55-5-----55-55-5-3-5-5-------------|
E|-------|  |------------------------------------------|

Pre Chorus

G|----------------------5--------------------|
D|------------3h5p3-5/7---------------------3|
A|5~-3~-0~-3~-------------5~-3~-0~-3~----345-|
E|------------------------------------345----|

Chorus

G|-------------------------------------------|
D|5-5-3-3-----3-------------5-7-------------3|
A|--------3-3---3-5-5-8---8-----8-8-5--------|
E|----------------------5-------------8-5-3--|

G|--------------------------------------------5--|
D|5-5-3-3-----3-------3-------------3h5p3-5/7----|
A|--------3-3---3-5-5---5-3---------------------5|
E|--------------------------5-4-3~---------------|

Intro
Verse
Pre-Chorus
Chorus
Chorus

During Vocals only (1:44 - 1:54)

G|----------------5-|
D|------3h5p3-5-7---|
A|------------------|
E|------------------|

Pre-Chorus

Pre-Chorus into Solo (2:00)

G|-------------------|
D|-------------------|
A|5~-3~-5-3-5-3-5-3-5|
E|-------------------|

G|----------|    |--------------------------------5--------------|
D|------3---|    |3---3---3---------3---3h5p3-5/7----------------|
A|---345--5-| x4 |--5---5---5----345--5-------------5-3-5-3-5-3-5|
E|345-------|    |------------345--------------------------------|

Chorus
Chorus
Pre-Chorus
Pre-Chorus

Outro:

G|---------|    |------3--|    |---------|    
D|------3--|    |---345--5|    |------3--|    
A|---345--5| x4 |345------| x2 |---345--5| x2 
E|345------|    |---------|    |345------|   

G|------5---------3----------------3/10~|
D|---567--7----345--5-------3-5-4-3-----|
A|567-------345----------345------------|
E|--------------------345---------------|

Enjoy, and I hope this is right!
Suggest correction
Give kudos to tab author, rate the tab!
1 2 3 4 5
comments
print report bad tab
guest
You may want to rate the tab now too:
select rating
Please do not post tabs as comments. Select "correction" instead!