Oops, an error
Loading. Please wait.

Everything Youre Breathing For Bass Tab

978 views 3 this week
no commentswrite comment
1 2 3 4 5
please rate
add to favorites
launch autoscroll
font size
0
reset
guitar tuner
Autoscroll
slow
fast
+/-
esc
set tempo
stop
Help us to improve Ultimate-Guitar.com Take our survey!
×
Author
Everything You're Breathing For by The Parlor Mob

Standard Tuning EADG

Please note that I have included all the variations in riffs that I picked
up on, but if you want to be lazy or are a beginner bassist, you can just
play the same riff or transition each time and it will still sound good.

Intro x2
--------------------------------------------------------------------------|
--------------------------------------------------------------------------|
-------------------------------------------------------------------3---3--|
---------3------------1---3---3-------------3---1----------3--------------|

Riff 1 x4
-------------------------------------------------------------------------|
-------------------------------------------------------------------------|
------------------------------------------------------------------3----3-|
--------3----------------------------------1-----------------3-----------|

Transition 1 x1
-------------------------------------------------------------------------|
------------------------------------1-------------3---3--3-1-3-1-3-3-----|
---1---------------3--------------------------------3--------------------|
-------------------------------------------------------------------------|

Guitar Fill
-----------------------------------------------------------------------|
-----------------------------------------------------------------------|
-------------------------------------------------------------1---------|
---3--3------guitar fill------3--3-----guitar fill-------------3-------|


Play Riff 1 x4


Riff 2 x4
----------------------------------------------------------------------|
----------------------------------------------------------------------|
-------------------------------------3-3-3-1-3-1----------------------|
--3-------------3----1----------3-----------------3-------------------|

Transition 2 x1
------------------------------------------------------------------------|
------------------------------------1--1-----------3---3--3-1-3-1-3-3---|
---1---1------------3---3----------------------------3------------------|
------------------------------------------------------------------------|


Play Riff 1 x1 but don't hold out the notes


Guitar/Bass solo (or Guitar Fill if you can't get it) x1
-----------------------------------------------------------------------|
-----------------------------------------------------1--3---1--3-------|
-----3--1----3--1-----3--1--------------------3-------3----------------|
--3--------3--------3---------1------1----1----------------------------|


Play Riff 1 x1 but don't hold out the notes


Guitar/Bass solo (or Guitar Fill if you can't get it) x1


Bass Run
------------------------------------3---3-----|
-5-5-5-5-5-5-5-5-5-5-5-5-5-3-5-5-5-5-5-5-5-5--|
--------------------------5-------------------|
----------------------------------------------|
Do this eighth note run throwing in the little variations as you please for 9 bars, then
----------------------------------------------------3-----3-----3--3-5-5-5---|
--3-------------1-----1----1--1--1-3-5-5-5-5--5-5--5-5--5--------------------|
----5-3-3-3-3--3-3--3-3-3--3-------------------------------------------------|
-----------------------------------------------------------------------------|

Play Transition 2 x1 but cut off at the first F

Play Riff 1 x1 but double up the notes

Guitar/Bass solo (or Guitar Fill if you can't get it) x1

Repeat Riff 1 and Bass solo until the song mellows out, then play Riff 1 until the end.
Suggest correction
Give kudos to tab author, rate the tab!
1 2 3 4 5
comments
print report bad tab
guest
You may want to rate the tab now too:
select rating
Please do not post tabs as comments. Select "correction" instead!