Oops, an error
Loading. Please wait.

Everything Youre Breathing For Tab

14,093 views 6 this week
2 commentsread comments
1 2 3 4 5
accurate
x 5
add to favorites
launch autoscroll
font size
0
reset
how to read this tab
guitar tuner
Tab Pro tools
  • play this tab
  • loop segment
  • change instrument
  • show fretboard
  • metronome
×
Best way to learn
"Everything Youre Breathing For"
Autoscroll
slow
fast
+/-
esc
set tempo
stop
Contributor
Difficulty
novice
-------------------------------------------------------------------------------
                EVERYTHING YOU'RE BREATHING FOR - The Parlor Mob
-------------------------------------------------------------------------------

http://www.roadrunnerrecords.com/artists/ParlorMob/

Tabbed by: affiray
Email: rbasralian@gmail.com

Tuning: EADGBe

This is my first tab, but I think it's pretty accurate...feel free to email me
with any questions, comments, suggestions, or whatever.



Verse Riff (x6):
 |
e|---------------------------------------------------------------------------|
B|-------12--------13p12-----12--------------------12p10---------------------|
G|------------------------------12-------------------------------------------|
D|----12--------12--------12-------12-----------10---------------8h10p8------|
A|-10-----------------------------------------8---------------10--------h10--|
E|----------------------------------------------------------8----------------|
 |
 |
e|---------------------------------------------------------------------------|
B|----------------------------------------------------------------5----------|
G|-------4----------5p4-------4---------------------2-------------5----------|
D|-------------------------------5-----------------------------5-------------|
A|----5---------5----------5--------5-----------3-----------3----------------|
E|-3------------------------------------------1------------------------------|


Build-Up -- "and though I hate to be the one to bear such news...":
e|---------------------------------------------------------------------------|
B|---------------------------------------------------------------------------|
G|-------7-----8p7----7---------------9------10p9---9------------------------|
D|-----------------------8-----------------------------10--------------------|
A|-----8-----8-------------8-------10-----10--------------10-----------------|
E|---6---------------------------8-------------------------------------------|

e|--------------------------------------------8------------------------------|
B|-------8-----9p8----8---------------10-------------------------------------|
G|-----------------------8---------------------------------------------------|
D|-----8----8--------------8-------10-----10---------------------------------|
A|---6---------------------------8-------------------------------------------|
E|---------------------------------------------------------------------------|


Bridge
e|------------------------------3--------------------------------------------|
B|--------------------------------3------------------------------------------|
G|--------------------5p4---5p4-----4-----3----------------------------------|
D|-5-------5--------5-----5-----------3h5---5p3----2h3------5-----5----------|
A|-5-------5------------------------------------5-------3h5---3h5---3h5------|
E|-3-------3-----------------------------------------------------------------|


e|------------------------------3--------------------------------------------|
B|--------------------------------3------------------------------------------|
G|--------------------5p4---5p4-----4-----3------------------------3---------|
D|-5-------5--------5-----5-----------3h5---5p3----2h3------5------3---------|
A|-5-------5------------------------------------5-------3h5----3---1---------|
E|-3-------3-----------------------------------------------------------------|


Chorus Riff (same as verse) (x4) -- "Little one, how can it be?":
e|---------------------------------------------------------------------------|
B|-------12--------13p12-----12--------------------12p10---------------------|
G|------------------------------12-------------------------------------------|
D|----12--------12--------12-------12-----------10---------------8h10p8------|
A|-10-----------------------------------------8---------------10--------h10--|
E|----------------------------------------------------------8----------------|
 |
 |
e|---------------------------------------------------------------------------|
B|----------------------------------------------------------------5----------|
G|-------4----------5p4-------4---------------------2-------------5----------|
D|-------------------------------5-----------------------------5-------------|
A|----5---------5----------5--------5-----------3-----------3----------------|
E|-3------------------------------------------1------------------------------|


At the end of the fourth time, lead guitar plays like a tiny fill.

Like instead of playing this at the end
e|--------------------|
B|----------5---------|
G|----------5---------|
D|------5-------------|
A|--3-----------------|
E|--------------------|

Play something like this:
e|-----------------|
B|-----------------|
G|------5--x-x--5--|
D|------5--x-x--5--|
A|-/3------x-x-----|
E|-----------------|


Then second verse..."I was bound to the bedpost..."

Verse Riff (x4)
e|---------------------------------------------------------------------------|
B|-------12--------13p12-----12--------------------12p10---------------------|
G|------------------------------12-------------------------------------------|
D|----12--------12--------12-------12-----------10---------------8h10p8------|
A|-10-----------------------------------------8---------------10--------h10--|
E|----------------------------------------------------------8----------------|
 |
 |
e|---------------------------------------------------------------------------|
B|----------------------------------------------------------------5----------|
G|-------4----------5p4-------4---------------------2-------------5----------|
D|-------------------------------5-----------------------------5-------------|
A|----5---------5----------5--------5-----------3-----------3----------------|
E|-3------------------------------------------1------------------------------|


Second Build-Up -- "And while it was my wish to keep you from such pain...":
e|----------------------------------------------------------|
B|----------------------------------------------------------|
G|----------------------------------------------------------|
D|-8------8--------10------10-------10-8-10-11-10~~---------|
A|-8------8--------10------10-------------------------------|
E|-6------6--------8-------8--------------------------------|

That's the fill in the song, but it's fun to play with it...you could also try:

e|------------------------------|
B|------------------------------|
G|-------10-10b11r10----8-------|
D|-------------------10---10----|
A|------------------------------|
E|------------------------------|

Or anything else that sounds cool.


e|---------------------------------------------------------------------------|
B|---------------------------------------------------------------------------|
G|--8------8--------------10----------10----------10\\\\\\-------------------|
D|--8------8--------------10----------10----------10\\\\\\-------------------|
A|--6------6--------------8-----------8-----------8\\\\\\\-------------------|
E|---------------------------------------------------------------------------|


Chorus -- "Little one, how can it be?"
e|---------------------------------------------------------------------------|
B|---------------------------------------------------------------------------|
G|----------------------------------5--5--5--5-------------------------------|
D|-5------5-------------3---3-------5--5--5--5----5---------------5----------|
A|-5------5-------------3---3-------3--3--3--3----5---------------5----------|
E|-3------3-------------1---1-------------------------------------3----------|

e|---------------------3-----------------------------------------------------|
B|-----------------------3---------------------------------------------------|
G|-----------5p4---5p4-----4-----3-------------------------------------------|
D|---------5-----5-----------3h5---5p3----2h3------5-----5-------------------|
A|-------------------------------------5-------3h5---3h5----3h5--------------|
E|---------------------------------------------------------------------------|

e|---------------------------------------------------------------------------|
B|---------------------------------------------------------------------------|
G|------------------------------------5--5--5--5-----------------------------|
D|-5------5-----------3-----3---------5--5--5--5----5-----------5------5-----|
A|-5------5-----------3-----3---------3--3--3--3----5-----------5------5-----|
E|-3------3-----------1-----1-----------------------------------3------3-----|

e|---------------------3-----------------------------------------------------|
B|-----------------------3---------------------------------------------------|
G|-----------5p4---5p4-----4-----3------------------------3------------------|
D|---------5-----5-----------3h5---5p3----2h3------5------3-----5------------|
A|-------------------------------------5-------3h5----3---1-----5------------|
E|--------------------------------------------------------------3------------|


Then there's a crazy double-solo. I don't know how to play it, but it's pretty awesome. 
Maybe I'll tab it later.


Then, post-solo lead in to chorus (same as build-up before, but without the fill):

"You're sad, sad...Can't go without..."
e|------------------------------------------------------------------|
B|------------------------------------------------------------------|
G|-------------------------------------8-----8---------10-----------|
D|-8-----8----------10-----10----------8-----8---------10-----------|
A|-8-----8----------10-----10----------6-----6---------8------------|
E|-6-----6----------8------8----------------------------------------|


Chorus (x2) "Little one, how can it be?":
e|---------------------------------------------------------------------------|
B|---------------------------------------------------------------------------|
G|------------------------------------5--5--5--5-----------------------------|
D|-5------5-----------3-----3---------5--5--5--5----5-----------5------5-----|
A|-5------5-----------3-----3---------3--3--3--3----5-----------5------5-----|
E|-3------3-----------1-----1-----------------------------------3------3-----|
                                                                      ^^^
   The first time, right after the bulid-up, you skip the second G power chord at the end

e|---------------------3-----------------------------------------------------|
B|-----------------------3---------------------------------------------------|
G|-----------5p4---5p4-----4-----3-------------------------------------------|
D|---------5-----5-----------3h5---5p3----2h3------5-----5-------------------|
A|-------------------------------------5-------3h5---3h5----3h5--------------|
E|---------------------------------------------------------------------------|

e|---------------------------------------------------------------------------|
B|---------------------------------------------------------------------------|
G|------------------------------------5--5--5--5-----------------------------|
D|-5------5-----------3-----3---------5--5--5--5----5-----------5------5-----|
A|-5------5-----------3-----3---------3--3--3--3----5-----------5------5-----|
E|-3------3-----------1-----1-----------------------------------3------3-----|

e|---------------------3-----------------------------------------------------|
B|-----------------------3---------------------------------------------------|
G|-----------5p4---5p4-----4-----3------------------------3------------------|
D|---------5-----5-----------3h5---5p3----2h3------5------3------------------|
A|-------------------------------------5-------3h5----3---1------------------|
E|---------------------------------------------------------------------------|


Winding down...verse riff (x3):
e|---------------------------------------------------------------------------|
B|-------12--------13p12-----12--------------------12p10---------------------|
G|------------------------------12-------------------------------------------|
D|----12--------12--------12-------12-----------10---------------8h10p8------|
A|-10-----------------------------------------8---------------10--------h10--|
E|----------------------------------------------------------8----------------|
 |
 |
e|---------------------------------------------------------------------------|
B|----------------------------------------------------------------5----------|
G|-------4----------5p4-------4---------------------2-------------5----------|
D|-------------------------------5-----------------------------5-------------|
A|----5---------5----------5--------5-----------3-----------3----------------|
E|-3------------------------------------------1------------------------------|

And you end on this:
e|------------------------|
B|----13--13p12----12-----|
G|--------------12--------|
D|------------------------|
A|-10---------------------|
E|------------------------|


| /  slide up
| \  slide down
| h  hammer-on
| p  pull-off
| ~  vibrato
| +  harmonic
| x  Mute note
comments
print report bad tab
2 comments total.
+1 reply
fox11trot@hotma wrote on December 24 2009, 08:01 pm


Bridge
e|------------------------------3--------------------------------------------|
B|--------------------------------3------------------------------------------|
G|--------------------5p4---5p4-----4-----3----------------------------------|
D|-5-------5--------5-----5-----------3-----5----2h3-------5------5----------|
A|-5-------5----------------------------5-----3------5-3h5----3h5---3h5------|
E|-3-------3-----------------------------------------------------------------|

e|------------------------------3--------------------------------------------|
B|--------------------------------3------------------------------------------|
G|--------------------5p4---5p4-----4-----3----------------------3-----------|
D|-5-------5--------5-----5-----------3-----5----2h3-------5-----3-----------|
A|-5-------5----------------------------5-----3------5-3h5----3--1-----------|
E|-3-------3-----------------------------------------------------------------|

0 reply
oyeboy wrote on April 10 2015, 10:40 pm

Bridge
e|--------------------3---------------------------------------|
B|----------1p0---1p0---3p0-----------------------------------|
G|--------0-----0---------------3p0---------------------------|
D|-5---5--------------------3p0-------3\2p0-----3-----3-------|
A|-5---5----------------------------3-------3h5---3h5---3h5---|
E|-3---3------------------------------------------------------|

e|--------------------3---------------------------------------|
B|----------1p0---1p0---3p0-----------------------------------|
G|--------0-----0---------------3p0------------------3--------|
D|-5---5--------------------3p0-------3\2p0-----3----3--------|
A|-5---5----------------------------3-------3h5---3--1--------|
E|-3---3------------------------------------------------------|

The open notes ring out much better. Plus this is more practical to play.

I want to post or [tab]
guest
You may want to rate the tab now too:
select rating
Please do not post tabs as comments. Select "correction" instead!