Oops, an error
Loading. Please wait.

Fall Back Tab

641 views 6 this week
no commentswrite comment
1 2 3 4 5
please rate
add to favorites
launch autoscroll
font size
0
reset
how to read this tab
guitar tuner
Tab Pro tools
  • play this tab
  • loop segment
  • change instrument
  • show fretboard
  • metronome
×
Best way to learn
"Fall Back"
Autoscroll
slow
fast
+/-
esc
set tempo
stop
Contributor
Difficulty
intermediate
-----------------------------------------------------------------------------
                             FALL BACK - The Parlor Mob
-----------------------------------------------------------------------------
Tabbed by: sm97
E-mail: gibsonguitarblues@gmail.com

Tuning: Standard

I've been searching for a tab of this song ever since the album came out. I finally 
couldn't wait any longer, so I tabbed it out myself. It's a relatively simple song and it 
only took me a hour or so.
I apologize in advance for any formatting issues. It's an imperfect science.
Any corrections, shoot me an e-mail and let me know, although I hope there aren't any 
mistakes to find.

e|--------------------------------------------------------------------------|
B|--------------------------------------------------------------------------|
G|--------------------------------------------------------------------------|
D|--------------------------------------------------------------------------|
A|--------9----------------------6------------------------6-----------------|
E|8--8--8--9--8-xx-x8-xx-x8-xx-x---4--3-xx-x3-xx-x3-xx-x-6--8-xx-x8-xx-x----|

e|--------------------------------------------------------------------------|
B|---------------------------------------11--11--11h13\---------------------|
G|-------------------------------------12--12--12---------------------------|
D|--------------------------------------------------------------------------|
A|--9-------7---------------------------------------------------------------|
E|----9--6----6--8-8---8--8--8--8--8--------------------8--8--8--8--8-------|

e|--------------------------------------------------------------------------|
B|--------------------------------------------------------------------------|
G|-----------------------------8--------------------------------------------|
D|------------------------8-10---10-8---------------------------------------|
A|-6-----------------8-10-------------10-8-6-------------6-8-6--------------|
E|--6-8-8-8-8-8-11---------------------------6-6-6-6-6-6-------8(7 times)---|

e|--------------------------------------------------------------------------|
B|--------------------------------------------------------------------------|
G|--------------------------------------------------------------------------|
D|--------------------------------------------------------------------------|
A|----------------9--------------------6----------------------6-------------|
E|8-xx-x8-xx-x8-xx-9-8-xx-x8-xx-x8-xx-x-4-3-xx-x3-xx-x3-xx-x-6-8-xx-x8-xx-x8|

e|--------------------------------------------------------------------------|
B|-------------------------------------------11--11--11h13~~~---------------|
G|-----------------------------------------12--12--12-----------------------|
D|--------------------------------------------------------------------------|
A|--9-------7---------------------------------------------------------------|
E|----9--6----6--8-8--(8)\--8--8--8--8--8-------------------8--8--8--8--8---|

e|--------------------------------------------------------------------------|
B|--------------------------------------------------------------------------|
G|-----------------------------8--------------------------------------------|
D|------------------------8-10---10-8---------------------------------------|
A|-6-----------------8-10-------------10-8-6-------------6-8-6--------------|
E|--6-8-8-8-8-8-11---------------------------6-6-6-6-6-6-------8(7 times)---|

e|--------------------------------------------------------------------------|
B|--------------------------------------------------------------------------|
G|--------------------------------------------------------------------------|
D|--------------------------------------------------------------------------|
A|----------------9--------------------6----------------------6-------------|
E|8-xx-x8-xx-x8-xx-9-8-xx-x8-xx-x8-xx-x-4-3-xx-x3-xx-x3-xx-x-6-8-xx-x8-xx---|

Here's where the guitar solo comes in. The solo itself is not tabbed.

e|------------------------|
B|------------------------|
G|------------------------|{repeat this line twice}
D|------------------------|
A|--9-------7-------------|
E|----9--6----6--8-8--(8)\|


e|---------------------------|
B|-------------4-------------|
G|---------3-5---5-3---------|{Then this tasty pentatonic run once}
D|-----3-5-----------5-3-----|
A|-3-6-----------------------|
E|-----------------------4-3-|

e|----------------------------|
B|----------------------------|
G|----------------------------|{This once as well}
D|----------------------------|
A|-6----6---6-8-8-6---6-------|
E|---3----4---------8---8----6|

End solo

e|--------------------------------------------------------------------------|
B|--------------------------------------------------------------------------|
G|--------------------------------------------------------------------------|
D|--------------------------------------------------------------------------|
A|----------------9--------------------6----------------------6-------------|
E|8-xx-x8-xx-x8-xx-9-8-xx-x8-xx-x8-xx-x-4-3-xx-x3-xx-x3-xx-x-6-8-xx-x8-xx---|

e|-----------------|
B|-----------------|
G|-----------------|
D|-----------------|
A|--9-------7------|
E|----9--6----6--8-|

e|--------------------------------------------------------------------------|
B|--------------------------------------------------------------------------|
G|--------------------------------------------------------------------------|
D|--------------------------------------------------------------------------|
A|----------------9--------------------6----------------------6-------------|
E|8-xx-x8-xx-x8-xx-9-8-xx-x8-xx-x8-xx-x-4-3-xx-x3-xx-x3-xx-x-6-8-xx-x8-xx---|

e|-------------------------------------------|
B|-------------------------------------------|
G|-------------------------------------------|
D|-------------------------------------------|
A|--9-------7----9-9-------7h8--6---6--------|
E|----9--6----6------9--6---------8----8\----|

And that's how you play Fall Back by the Parlor Mob.

************************************

| /   slide up
| \   slide down
| h   hammer-on
| p   pull-off
| ~   vibrato
| +   harmonic
| x   Mute note
| b   Bend
| pb  Pre-bend
| br  Bend release
| pbr Pre-bend release
| brb Bend release bend

************************************
comments
We did not receive enough feedback on this tab! Please rate:
print report bad tab
1 2 3 4 5
I want to post or [tab]
guest
You may want to rate the tab now too:
select rating
Please do not post tabs as comments. Select "correction" instead!