Oops, an error
Loading. Please wait.

Hard Times Bass Tab

version 1
version 1

Whole song

Interactive

1,039 views 1 this week
no commentswrite comment
1 2 3 4 5
please rate
add to favorites
launch autoscroll
font size
0
reset
guitar tuner
Autoscroll
slow
fast
+/-
esc
set tempo
stop
Help us to improve Ultimate-Guitar.com Take our survey!
×
Author
Difficulty
intermediate
Intro

G|---------------------------------------|
D|------------------------------5--------|
A|--0-0-0-0-0-0-0-0-0-0-0-3/5-7---7-5\3--|
E|---------------------------------------|

G|--------------------------------------------------| x3
D|----------------------------------------5---------|
A|--0-0-0-0-0-0-0-0-0-0-0-0-0-0-0-0-3/5-7---7-5\3—-o|
E|--------------------------------------------------|

Verse

G|--------------------------------~-----------------| x8 
D|--------------5-7-----------------------5---------|
A|o---------------------------------3/5-7---7-5\3—-o|
E|----3-5----------------3-5------------------------|

Chorus

G|---------------------------------------|
D|------------------------------5--------|
A|--0-0-0-0-0-0-0-0-0-0-0-3/5-7---7-5\3--|
E|---------------------------------------|

G|--------------------------------------------------| 
D|----------------------------------------5---------|
A|--0-0-0-0-0-0-0-0-0-0-0-0-0-0-0-0-3/5-7---7-5\3—-o|
E|--------------------------------------------------|

Verse

G|--------------------------------~-----------------| x8
D|--------------5-7-----------------------5---------|
A|o---------------------------------3/5-7---7-5\3—-o|
E|----3-5----------------3-5------------------------|

Chorus

G|---------------------------------------|
D|------------------------------5--------|
A|--0-0-0-0-0-0-0-0-0-0-0-3/5-7---7-5\3--|
E|---------------------------------------|

G|--------------------------------------------------| x2
D|----------------------------------------5---------|
A|--0-0-0-0-0-0-0-0-0-0-0-0-0-0-0-0-3/5-7---7-5\3—-o|
E|--------------------------------------------------|

G|--------------------------7-7-5---|--9--9--9--9--9—9----|
D|----------------------------------|---------------------|
A|--0-0-0-0-0-0-0-0-0-0-0-0---------|---------------------|
E|----------------------------------|---------------------|

Interlude

G|-------|------------------|------------------|--9-9--|--9--9--9--9--9-9-| x2
D|-------|--5----6----7-----|--7----8----9-----|--9-9--|------------------|
A|o--3---|------------------|------------------|-------|------------------|
E|-------|------------------|------------------|-------|------------------|

Chorus

G|---------------------------------------|
D|------------------------------5--------|
A|--0-0-0-0-0-0-0-0-0-0-0-3/5-7---7-5\3--|
E|---------------------------------------|

G|--------------------------------------------------|--7-7-5-|
D|----------------------------------------5---------|--------|
A|--0-0-0-0-0-0-0-0-0-0-0-0-0-0-0-0-3/5-7---7-5\3—--|--------|
E|--------------------------------------------------|--------|

Breakdown

G|--------------------------------~-----------------| 
D|--------------5-7-----------------------5---------|
A|o---------------------------------3/5-7---7-5\3—-o|
E|----3-5----------------3-5------------------------|

G|--------------------------------~-----------------| 
D|--------------5-7-----------------------5---------|
A|o---------------------------------3/5-7---7-5\3—-o|
E|----3-5----------------3-5------------------------|

G|--------------------------------~-----------------| 
D|--------------------------------------------------|
A|o-------------------------------------------5\3—-o|
E|----3-5-5-5-5-5-5-5-5-5-5-5-5-5-5-5-5-5-5-5-------|

G|--------------------------------~-----------------| 
D|--------------5-7-----------------------5---------|
A|o---------------------------------3/5-7---7-5\3—-o|
E|----3-5----------------3-5------------------------|

G|--------------------------------~-----------------| 
D|--------------------------------------------------|
A|o-------------------------------------------5\3—-o|
E|----3-5-5-5-5-5-5-5-5-5-5-5-5-5-5-5-5-5-5-5-------|

G|--------------------------------~-----------------| 
D|--------------5-7-----------------------5---------|
A|o---------------------------------3/5-7---7-5\3—-o|
E|----3-5----------------3-5------------------------|

G|-------------5-7----------------~-----------------| x2
D|----------------------------------------5---------|
A|o---3-5--------------3-5----------3/5-7---7-5\3—-o|
E|--------------------------------------------------|

G|--------------------------------~-----------------| 
D|--------------------------------------------------|
A|o-------------------------------------------5\3—-o|
E|----3-5-5-5-5-5-5-5-5-5-5-5-5-5-5-5-5-5-5-5-------|

G|--------------------------------~-----------------| 
D|--------------5-7-----------------------5---------|
A|o---------------------------------3/5-7---7-5\3—-o|
E|----3-5----------------3-5------------------------|

G|--------------------------------~-----------------| 
D|--------------------------------------------------|
A|o-------------------------------------------5\3—-o|
E|----3-5-5-5-5-5-5-5-5-5-5-5-5-5-5-5-5-5-5-5-------|

G|--------------------------------~-----------------| 
D|--------------5-7-----------------------5---------|
A|o---------------------------------3/5-7---7-5\3—-o|
E|----3-5----------------3-5------------------------|

Outro

G|------------|--9--9--9-9-8-8--|--7-5~------7-5~--|-----------------|
D|------9-----|-----------------|------------------|--------5--------|
A|----7-------|-----------------|-------0-0-0------|--3/5-7---7-5\3--|
E|--x---------|-----------------|------------------|-----------------|

G|---------------------------------------|
D|------------------------------5--------|
A|--0-0-0-0-0-0-0-0-0-0-0-3/5-7---7-5\3--|
E|---------------------------------------|





Suggest correction
Give kudos to tab author, rate the tab!
1 2 3 4 5
comments
print report bad tab
guest
You may want to rate the tab now too:
select rating
Please do not post tabs as comments. Select "correction" instead!