Oops, an error
Loading. Please wait.

Into The Sun Tab

version 1
version 1

Whole song

Interactive

5,197 views 9 this week
no commentswrite comment
1 2 3 4 5
x 4
add to favorites
launch autoscroll
font size
0
reset
how to read this tab
guitar tuner
Autoscroll
slow
fast
+/-
esc
set tempo
stop
Help us to improve Ultimate-Guitar.com Take our survey!
×
Author
"The Parlor Mob" - "Into The Sun"

While Tapping the Chorus I realized, the song had to be in Drop C.
But to make it easier, just play the C one Octave higher, as shown in this Tab.
I don't think it makes that much of a difference.
So here it is in DROP D!!!

Drop D Tuning
Gtr I (D A D G B E)
Gtr II (D A D G B E)
Gtr III (D A D G B E)


[PreIntro]:
Git I:           Git 2:
|------------|   |------------|
|------------|   |------------|
|--[5]---[5]-|   |--[5]-------|
|-----[5]----|   |-----[5]----|
|------------|   |--------[5]-|
|------------|   |------------|

[Intro]:
Git I & Git II
|--------|--------|--------|--------|--------|--------|--------|--------|
|--------|--------|--------|--------|--------|--------|--------|--------|
|--------|--------|--------|--------|--------|--------|--------|--------|
|--------|--------|--------|--------|--------|--------|--------|--------|
|--------|--------|--------|----0-3-|----5---|----5---|----5---|5-4-3---|
|0-0-3-0-|0-0-3-0-|0-0-3-0-|3-5-----|0-0---0-|0-0---0-|0-0---0-|------3-|

|--------|--------|--------|--------|--------|--------|--------|--------|
|--------|--------|--------|--------|--------|--------|--------|--------|
|--------|--------|--------|--------|--------|--------|--------|--------|
|--------|--------|--------|--------|--------|--------|--------|--------|
|--------|--------|--------|----0-3-|----5---|----5---|0-------|0-------|
|0-0-3-0-|0-0-3-0-|0-0-3-0-|3-5-----|0-0---0-|0-0---0-|--3-----|--2-----|

[Verse]:
Git I
|--------|--------|--------|--------|--------|--------|--------|--------| \
|--------|--------|--------|--------|--------|--------|--------|--------|  \
|--------|--------|--------|--------|--------|--------|--------|--------|   \ 2x
|--------|--------|--------|--------|--------|--------|--------|--------|   /
|--------|--------|--------|----0-3-|----5---|----5---|----5---|5-4-3---|  /
|0-0-3-0-|0-0-3-0-|0-0-3-0-|3-5-----|0-0---0-|0-0---0-|0-0---0-|------3-| /

Git II
|--------|--------|--------|--------|--------|--------|--------|--------| \
|--------|--------|--------|--------|--------|--------|--------|--------|  \
|--------|--------|--------|--------|--------|--------|--------|--------|   \ 2x
|--------|--------|--------|--------|--------|--------|--------|--------|   /
|--------|--------|--------|--------|--------|--------|--------|--------|  /
|0-0-0-0-|0-0-0-0-|0-0-0-0-|0-0-0-0-|0-0-0-0-|0-0-0-0-|0-0-0-0-|0-0-0-0-| /

[PreChorus]:
Git I
|--------|--------|--------|--------|--------|--------|--------|--------|
|--------|--------|--------|--------|--------|--------|--------|--------|
|--------|--------|--------|--------|--------|--------|--------|--------|
|3---3---|3-------|--------|--------|2---2---|2-------|--------|--x-x-x-|
|3---3---|3-------|--------|--------|2---2---|2-------|--------|--x-x-x-|
|3---3---|3-------|--------|--------|2---2---|2-------|--------|--x-x-x-|

|--------|--------|--------|--------|
|--------|--------|--------|--------|
|--------|--------|--------|--------|
|--------|--------|--------|--------|
|--------|--------|--------|5-4-3---|
|0-0-3-0-|0-0-3-0-|0-0-3-0-|------5-|

Git II
|--------|--------|--------|--------|--------|--------|--------|--------|
|--------|--------|--------|--------|--------|--------|--------|--------|
|--------|--------|--------|--------|--------|--------|--------|--------|
|--------|--------|--------|--------|--------|--------|--------|--------|
|--------|--------|--------|--------|--------|--------|--------|--------|
|3-3-3-3-|3-3-3-3-|3-3-3-3-|3-3-3-3-|2-2-2-2-|2-2-2-2-|2-2-2-2-|--x-x-x-|

|--------|--------|--------|--------|
|--------|--------|--------|--------|
|--------|--------|--------|--------|
|--------|--------|--------|--------|
|--------|--------|--------|5-4-3---|
|0-0-3-0-|0-0-3-0-|0-0-3-0-|------5-|

[Chorus]:
Git I & II
|--------|--------|--------|--------|--------|--------|--------|--------|
|--------|--------|--------|--------|--------|--------|--------|--------|
|--------|--------|--------|--------|----5---|----5---|----5---|--------|
|----3---|----3---|----3---|----5---|--------|--------|--------|----3---|
|--------|--------|--------|--------|3-3---3-|3-3---3-|3-3---3-|--------|
|3-3---3-|3-3---3-|3-3---3-|5-5---5-|--------|--------|--------|3-3---3-|

|--------|--------|--------|--------|--------|--------|--------|--------|
|--------|--------|--------|--------|--------|--------|--------|--------|
|--------|--------|--------|--------|--------|--------|--------|--------|
|----0-0-|--0---0-|--0---0-|3-3-3-3-|----8-8-|--8---8-|--8---8-|----5---|
|------0-|--0---0-|--0---0-|3-3-3-3-|------8-|--8---8-|--8---8-|--------|
|0-0---0-|--0---0-|--0---0-|3-3-3-3-|8-8---8-|--8---8-|--8---8-|--5---5-|

|--------|--------|--------|--------|--------|--------|--------|--------|
|--------|--------|--------|--------|--------|--------|--------|--------|
|--------|--------|--------|--------|----5---|----5---|----5---|--------|
|----3---|----3---|----3---|----5---|--------|--------|--------|----3---|
|--------|--------|--------|--------|3-3---3-|3-3---3-|3-3---3-|--------|
|3-3---3-|3-3---3-|3-3---3-|5-5---5-|--------|--------|--------|3-3---3-|

|--------|--------|--------|--------|--------|--------|--------|--------|
|--------|--------|--------|--------|--------|--------|--------|--------|
|--------|--------|--------|--------|--------|--------|--------|--------|
|----0-0-|--0---0-|--0---0-|3-3-3-3-|----8---|8---8---|8\------|--------|
|------0-|--0---0-|--0---0-|3-3-3-3-|--------|--------|--------|--------|
|0-0---0-|--0---0-|--0---0-|3-3-3-3-|8-8---8-|--8---8-|--------|--x-x-x-|

Git II
|--------|--------|--------|--------|--------|--------|--------|--------|
|--------|--------|--------|--------|--------|--------|--------|--------|
|--------|--------|--------|--------|5-5-5-5-|5-5-5-5-|5-5-5-5-|--------|
|3-3-3-3-|3-3-3-3-|3-3-3-3-|5-5-5-5-|5-5-5-5-|5-5-5-5-|5-5-5-5-|3-3-3-3-|
|3-3-3-3-|3-3-3-3-|3-3-3-3-|5-5-5-5-|3-3-3-3-|3-3-3-3-|3-3-3-3-|3-3-3-3-|
|3-3-3-3-|3-3-3-3-|3-3-3-3-|5-5-5-5-|--------|--------|--------|3-3-3-3-|

|--------|--------|--------|--------|--------|--------|--------|--------|
|--------|--------|--------|--------|--------|--------|--------|--------|
|--------|--------|--------|--------|--------|--------|--------|--------|
|0-0-0-0-|--0---0-|--0---0-|3-3-3-3-|8-8-8-8-|--8---8-|--8---8-|--5-5-5-|
|0-0-0-0-|--0---0-|--0---0-|3-3-3-3-|8-8-8-8-|--8---8-|--8---8-|--5-5-5-|
|0-0-0-0-|--0---0-|--0---0-|3-3-3-3-|8-8-8-8-|--8---8-|--8---8-|--5-5-5-|

|--------|--------|--------|--------|--------|--------|--------|--------|
|--------|--------|--------|--------|--------|--------|--------|--------|
|--------|--------|--------|--------|5-5-5-5-|5-5-5-5-|5-5-5-5-|--------|
|3-3-3-3-|3-3-3-3-|3-3-3-3-|5-5-5-5-|5-5-5-5-|5-5-5-5-|5-5-5-5-|3-3-3-3-|
|3-3-3-3-|3-3-3-3-|3-3-3-3-|5-5-5-5-|3-3-3-3-|3-3-3-3-|3-3-3-3-|3-3-3-3-|
|3-3-3-3-|3-3-3-3-|3-3-3-3-|5-5-5-5-|--------|--------|--------|3-3-3-3-|

|--------|--------|--------|--------|--------|--------|--------|--------|
|--------|--------|--------|--------|--------|--------|--------|--------|
|--------|--------|--------|--------|--------|--------|--------|--------|
|0-0-0-0-|--0---0-|--0---0-|3-3-3-3-|8-8-8-8-|8-8-8-8-|8\------|--x-x-x-|
|0-0-0-0-|--0---0-|--0---0-|3-3-3-3-|8-8-8-8-|8-8-8-8-|8\------|--x-x-x-|
|0-0-0-0-|--0---0-|--0---0-|3-3-3-3-|8-8-8-8-|8-8-8-8-|8\------|--x-x-x-|

[2nd Half of the Intro]

[Verse]

[PreChorus]

[Chorus] (with different ending):

Git I
|--------|--------|--------|--------|
|--------|--------|--------|--------|
|--------|--------|--------|--------|
|----8---|8---8---|8---8---|--------|
|--------|--------|--------|--------|
|8-8---8-|--8---8-|--8---8-|2b3-----|

Git II
|--------|--------|--------|--------|
|--------|--------|--------|--------|
|--------|--------|--------|--------|
|8-8-8-8-|8-8-8-8-|8-8-8-8-|--------|
|8-8-8-8-|8-8-8-8-|8-8-8-8-|--------|
|8-8-8-8-|8-8-8-8-|8-8-8-8-|2b3-----|

[Interlude]:
Git I & II
|--------|--------|--------|--------|--------|--------|--------|--------|
|--------|--------|--------|--------|--------|--------|--------|--------|
|--------|--------|--------|--------|--------|--------|--------|--------|
|----3---|--0-----|6-----0-|----3---|----3---|--0-----|6-----0-|----3---|
|--------|--------|--------|--------|--------|--------|--------|--------|\
|0-------|0-----0-|----0---|--0-----|0-------|0-----0-|----0---|--0-----| \
                                                                           } 2x
|--------|--------|--------|--------|--------|--------|--------|--------| /
|--------|--------|--------|--------|--------|--------|--------|--------|/
|--------|--------|--------|--------|--------|--------|--------|--------|
|----3---|--0-----|6-----0-|----3---|--------|--------|--------|--------|
|--------|--------|--------|--------|5-4-3-0-|--------|0-------|0-------|
|0-------|0-----0-|----0---|--0-----|--------|5-3-----|--6-5-3-|--0-----|

Git III (with lots of effects, starting with the 2nd Part of the Interlude):
|10[slowslide]||17--[let|ring]--|-----|-----|[slideout]|-----|-----|--\10|
|-------------||--------|-------|-----|-----|----------|-----|-----|-----|
|-------------||--------|-------|-----|-----|----------|-----|-----|-----|
|-------------||--------|-------|-----|-----|----------|-----|-----|-----|
|-------------||--------|-------|-----|-----|----------|-----|-----|-----|
|-------------||--------|-------|-----|-----|----------|-----|-----|-----|

|/22--|-[let|ring]|---|[sliedout]|--\21|17-16-15----|17---------|
|-----|-----|-----|---|----------|-----|---------18-|---15------|
|-----|-----|-----|---|----------|-----|------------|-----------|
|-----|-----|-----|---|----------|-----|------------|-----------|
|-----|-----|-----|---|----------|-----|------------|-----------|
|-----|-----|-----|---|----------|-----|------------|-----------|

[Bridge]:
Git I
|--------|--------|--------|--------|--------|--------|--------|--------|
|--------|--------|--------|--------|--------|--------|--------|--------|
|--------|--------|--------|--------|--------|--------|--------|--------|
|0-------|--------|--------|--------|--------|--------|--------|--------|
|0-------|--------|--------|--------|--------|--------|--------|5-4-3---|
|0-------|--------|--------|--------|--------|--------|--------|------5-|

Git II
|--------|--------|--------|--------|--------|--------|--------|--------|
|--------|--------|--------|--------|--------|--------|--------|--------|
|--------|--------|--------|--------|--------|--------|--------|--------|
|--------|--------|--------|--------|--------|--------|--------|--------|
|--------|--------|--------|----0-3-|--------|--------|--------|5-4-3---|
|0---0-0-|0-0-0-0-|0-0-0-0-|3-5-----|0-0-0-0-|0-0-0-0-|0-0-0-0-|------5-|

Git III
|22---|-[let|ring]|---|21-20-19-|18-17-16-|15[sliedeout]|--------|
|-----|-----|-----|---|---------|---------|-------------|--------|
|-----|-----|-----|---|---------|---------|-------------|--------|
|-----|-----|-----|---|---------|---------|-------------|--------|
|-----|-----|-----|---|---------|---------|-------------|--------|
|-----|-----|-----|---|---------|---------|-------------|--------|

[Chorus]

[Outro = 1st Half of the Intro]
Suggest correction
comments
print report bad tab
guest
You may want to rate the tab now too:
select rating
Wanna post a correction for this tab? Suggest correction