Oops, an error
Loading. Please wait.

Beautiful chords

version 2
version 2

Whole song

2,744 views 1 this week
1 commentread comment
1 2 3 4 5
1 last vote to show rating
add to favorites
×
Save as Personal and add changes to this tab that will be seen only by you. Learn more ›
×
You can save this tab as Personal to edit and correct it or add notes. All changes will be seen only by you. Learn more »
launch autoscroll
font size
0
reset
transpose
0
reset
display chords
guitar tuner
edit
Autoscroll
slow
fast
+/-
esc
set tempo
stop
Strumming
There is no strumming pattern for this song yet. and get +5 IQ
Intro:(pause)
|-5-5--7-7--3-3--------------------------------------------|
|-5-5--7-7--3-3--------------------------------------------|
|-6-6--8-8--5-5--------------------------------------------|
|-7-7--9-9--5-5--------------------------------------------|
|-7-7--9-9--3-3--------------------------------------------|
|-5-5--7-7-------------------------------------------------|

               C
Wish upon a falling star
               Em
Passion patrol
              Am
Accept us for who we are
                F
Don’t loose control
                 C
The old non-american rules
                   Em
The choir to be traced
                         Am
I’m not in need for thrills
                   F
Don’t need to be safe today

(repeat intro)
Chorus:
             C
And you are all beautiful
             G         
And you are all magical
                 F      
Deserve to be adored
                  C
Deserve to be adored

                    C
Science of all of you
         Em
Parody poem
                  Am
Fought up with swinging fists
                 F
Don’t wanna be alone
                   C
Theres romance embedded in me
                   Em
To the borderline patrol
                 Am
Ferenchian happiness
                 F
The borderline patrol

(repeat intro)
Chorus:
             C
And you are all beautiful
             G         
And you are all magical
                 F      
Deserve to be adored
                  C
Deserve to be adored

(Repeat chorus)
                  C
I’ll tell you for free
                Em
This is just formula
                 Am
This is just chemistry
                  F
None of this is real to me

(repeat but slower)

repeat chorus until fade

            
            
Suggest correction
Creating personal tab
Creating personal tab
You can edit any tab online and save it as your Personal.

You can edit, replace or remove any tab part or add personal notes – all changes will be seen only by you.

Personal tabs can be accessed anytime from any device, even offline.
Learn more »
Give kudos to tab author, rate the tab!
1 2 3 4 5
comments
print report bad tab
1 comment total.
0 reply
FireFox33 10 Oct 07, 2009 01:34 AM

The intro this song on the album "bordeline patrol" is actually:
F G C5

Intro:(pause)
|-1-1--3-3--3-3--------------------------------------------|
|-1-1--3-3--3-3--------------------------------------------|
|-2-2--4-4--5-5--------------------------------------------|
|-3-3--5-5--5-5--------------------------------------------|
|-3-3--5-5--3-3--------------------------------------------|
|-1-1--3-3-------------------------------------------------|

and its the same for the prechorus

guest
Wanna post a correction for this tab? Suggest correction