Oops, an error
Loading. Please wait.

Ride Bass Tab

16 views 1 this week
no commentswrite comment
1 2 3 4 5
3 more votes to show rating
add to favorites
launch autoscroll
font size
0
reset
guitar tuner
Autoscroll
slow
fast
+/-
esc
set tempo
stop
Help us to improve Ultimate-Guitar.com Take our survey!
×
Author
Difficulty
novice
[Intro]

G|---------------|---------------|---------------|---------------|
D|---------------|---------------|--0---0--------|---------------|
A|--0---------3--|--0---------3--|--------3---3--|--0---------3--|
E|----3-5-0-3----|----3-5-0-3----|----1-----3----|----3-5-0-3----|


G|---------------|---------------|
D|---------------|--0---0--------|
A|--0---------3--|--------3---3--|
E|----3-5-0-3----|----1-----3----|


[Verse 1] (x2)

G|---------------|---------------|---------------|---------------|
D|---------------|---------------|--0---0--------|---------------|
A|--0---------3--|--0---------3--|--------3---3--|--0---------3--|
E|----3-5-0-3----|----3-5-0-3----|----1-----3----|----3-5-0-3----|


G|---------------|---------------|
D|---------------|--0---0--------|
A|--0---------3--|--------3---3--|
E|----3-5-0-3----|----1-----3----|


[Chorus]

G|---------------|---------------|---------------|---------------| (x2)
D|--5---5-3---3--|---------------|--5---5-3---3--|---------------|
A|----5-----3----|--3---3-5---5--|----5-----3----|--3---3-5---5--|
E|---------------|----3-----5----|---------------|----3-----5----|


[Verse 2] (x2)

G|---------------|---------------|---------------|---------------|
D|---------------|---------------|--0---0--------|---------------|
A|--0---------3--|--0---------3--|--------3---3--|--0---------3--|
E|----3-5-0-3----|----3-5-0-3----|----1-----3----|----3-5-0-3----|


G|---------------|---------------|
D|---------------|--0---0--------|
A|--0---------3--|--------3---3--|
E|----3-5-0-3----|----1-----3----|


[Chorus]

G|---------------|---------------|---------------|---------------| (x2)
D|--5---5-3---3--|---------------|--5---5-3---3--|---------------|
A|----5-----3----|--3---3-5---5--|----5-----3----|--3---3-5---5--|
E|---------------|----3-----5----|---------------|----3-----5----|


[Outro] (repeat until the end)

G|---------------|---------------|---------------|---------------|
D|---------------|---------------|---------------|---------------|
A|--0---------3--|--0-----5-5-5--|--0---------3--|--0-----5-5-5--|
E|----3-5-0-3----|----3-5--------|----3-5-0-3----|----3-5--------|



************************

in regular sequence!

************************
Suggest correction
Give kudos to tab author, rate the tab!
1 2 3 4 5
comments
print report bad tab
guest
You may want to rate the tab now too:
select rating
Wanna post a correction for this tab? Suggest correction