Oops, an error
Loading. Please wait.

Trouble Sleeping Tab

version 1
version 1

Whole song

Interactive

7,263 views 3 this week
no commentswrite comment
1 2 3 4 5
x 5
add to favorites
launch autoscroll
font size
0
reset
how to read this tab
guitar tuner
Autoscroll
slow
fast
+/-
esc
set tempo
stop
Help us to improve Ultimate-Guitar.com Take our survey!
×
Author
Difficulty
novice
This is a great song! It's pretty easy to play...by the way..this is my first
tab...so i'm sorry if it's crap! I don't know if its exact...but it sure sounds
accurate to me! Enjoy =]
Intro:

e---------------13---10---------------------------------|
b------11---------------10--10----10---11---------------|
g--12------10------------------10-----------------------|   x3
d-------------------------------------------------------|
a-------------------------------------------------------|
E-------------------------------------------------------|

e---------------13---10---------------13----10----------|
b------11----------------11--11-------------------11----|
g--12------10--------------------10---------------------|
d-------------------------------------------------------|

a-------------------------------------------------------|
E-------------------------------------------------------|

Verse 1:
e-------------------------------------------------------|
b--------------------------------10-----11--------------|
g---------------------------------------------12--------|  x2 (this is an
d-------------------------------------------------------|    optional fill
a-------------------------------------------------------|    between phrases)
E-------------------------------------------------------|

e---------------13---10---------------13----10----------|
b------11----------------11--11-------------------11----|
g--12------10--------------------10---------------------|
d-------------------------------------------------------|
a-------------------------------------------------------|
E-------------------------------------------------------|


e-------------------------------------------------------|
b--------------------------------10-----11--------------|
g---------------------------------------------12--------| x2
d-------------------------------------------------------|
a-------------------------------------------------------|
E-------------------------------------------------------|

e---------------13---10---------------13----10----------|
b------11----------------11--11-------------------11----|
g--12------10--------------------10---------------------|
d-------------------------------------------------------|
a-------------------------------------------------------|
E-------------------------------------------------------|

Chorus:
e---------------13---10---------------13----10----------|
b------11----------------11--11-------------------11----|
g--12------10--------------------10---------------------| x3
d-------------------------------------------------------|
a-------------------------------------------------------|
E-------------------------------------------------------|

Interlude:
e---------------13---10---------------------------------|
b------11---------------10--10----10---11---------------|
g--12------10------------------10-----------------------| x3
d-------------------------------------------------------|
a-------------------------------------------------------|
E-------------------------------------------------------|

e---------------13---10---------------13----10----------|
b------11----------------11--11-------------------11----|
g--12------10--------------------10---------------------|
d-------------------------------------------------------|
a-------------------------------------------------------|
E-------------------------------------------------------|

Verse 2:
e-------------------------------------------------------|
b--------------------------------10-----11--------------|
g---------------------------------------------12--------|  x2 (this is an
d-------------------------------------------------------|    optional fill
a-------------------------------------------------------|    between phrases)
E-------------------------------------------------------|

e---------------13---10---------------13----10----------|
b------11----------------11--11-------------------11----|
g--12------10--------------------10---------------------|
d-------------------------------------------------------|
a-------------------------------------------------------|
E-------------------------------------------------------|

e-------------------------------------------------------|
b--------------------------------10-----11--------------|
g---------------------------------------------12--------| x2
d-------------------------------------------------------|
a-------------------------------------------------------|
E-------------------------------------------------------|

e---------------13---10---------------13----10----------|
b------11----------------11--11-------------------11----|
g--12------10--------------------10---------------------|
d-------------------------------------------------------|
a-------------------------------------------------------|
E-------------------------------------------------------|

Chorus:
e---------------13---10---------------13----10----------|
b------11----------------11--11-------------------11----|
g--12------10--------------------10---------------------| x3
d-------------------------------------------------------|
a-------------------------------------------------------|
E-------------------------------------------------------|

Interlude:
e------------13---10-----|
b---11----------------11-|
g-------10---------------| x4
d------------------------|
a------------------------|
E------------------------|

e----------13---10----------------13---10-----------------13----10----|
b--11---------------10---10-----------------11---11----------------11-|
g------10--------------------10-----------------------10--------------|
d---------------------------------------------------------------------|
a---------------------------------------------------------------------|
E---------------------------------------------------------------------|

Chorus:
e---------------13---10---------------13----10----------|
b------11----------------11--11-------------------11----|
g--12------10--------------------10---------------------| x3
d-------------------------------------------------------|
a-------------------------------------------------------|
E-------------------------------------------------------|

Interlude:
e------------13---10-----|
b---11----------------11-|
g-------10---------------| x12
d------------------------|
a------------------------|
E------------------------|

e----------13---10----------------13---10-----------------13----10----|
b--11---------------10---10-----------------11---11----------------11-|
g------10--------------------10-----------------------10--------------|
d---------------------------------------------------------------------|
a---------------------------------------------------------------------|
E---------------------------------------------------------------------|

e------------13---10-----|
b---11----------------11-|
g-------10---------------|
d------------------------|
a------------------------|
E------------------------|

Solo:
e---------------------------------13---10-10/13--10-10-10-10--13--12--11-----|
b--11--11--11----11--11--10--11------------------------------------------11--|
g----------------------------------------------------------------------------|
d----------------------------------------------------------------------------| 
a----------------------------------------------------------------------------|
E----------------------------------------------------------------------------|
repeat this solo 3 times!


e------------------13----10---13/15---13--------|
b-----------------------------------------------|
g-11--11--10--11--------------------------------|
d-----------------------------------------------|
a-----------------------------------------------|
E-----------------------------------------------|

End:
e------------13---10-----|
b---11----------------11-|
g-------10---------------| x2
d------------------------|
a------------------------|
E------------------------|

yay! all finished! hope it wasn't too bad!
Suggest correction
comments
print report bad tab
guest
You may want to rate the tab now too:
select rating
Wanna post a correction for this tab? Suggest correction