Oops, an error
Loading. Please wait.

Red Orange Yellow Tab

2,250 views 6 this week
4 commentsread comments
1 2 3 4 5
accurate
x 6
add to favorites
launch autoscroll
font size
0
reset
how to read this tab
guitar tuner
Autoscroll
slow
fast
+/-
esc
set tempo
stop
Help us to improve Ultimate-Guitar.com Take our survey!
×
Author
Difficulty
novice
Band:The Photo Atlas
Song:Red Orange Yellow

tabbed by:barney14

tuning:standard

http://en.wikipedia.org/wiki/The_Photo_Atlas

this is my first tab so there might be a little mistakes, but i think this is pretty 
close to the song!

   Intro/Verse

|----------------|-----------------|-----------------|--------------|
|-------12-------|-----------------|-------12--------|--------------|
|----------11----|-----------------|----------11-----|--------------| (4x)
|-9-9-9-------12-|-9-9-9-12-14-12--|-9-9-9-------12--|-9-9-9--9-----|
|----------------|-----------------|-----------------|--------------|
|----------------|-----------------|-----------------|--------------|

   Chorus

|----------------------------------|
|----------------------------------|
|-11(15x)-14(8x)-16(8x)------------|  (4x)
|-9-------12-----14----------------|
|----------------------------------|
|----------------------------------|

   Verse

|----------------|-----------------|-----------------|--------------|
|-------12-------|-----------------|-------12--------|--------------|
|----------11----|-----------------|----------11-----|--------------| (4x)
|-9-9-9-------12-|-9-9-9-12-14-12--|-9-9-9-------12--|-9-9-9--9-----|
|----------------|-----------------|-----------------|--------------|
|----------------|-----------------|-----------------|--------------|

   Chorus

|----------------------------------|
|----------------------------------|
|-11(15x)-14(8x)-16(8x)------------|  (4x)
|-9-------12-----14----------------|
|----------------------------------|
|----------------------------------|

   Outro

|-----------------------------------------------------|
|-----------------------------------------------------|
|-----------------------------------------------------|  (4x)
|-9-9-9-9(4x)--12-12-12-12(2x)--14-14-14-14(2x)-------|  All tremelo picked
|-----------------------------------------------------|
|-----------------------------------------------------|

|----------------------------|
|----------------------------|
|----------------------------|  (4x)
|-9(15x)--12(8x)--14(8x)-----|
|----------------------------|
|----------------------------|

|-----------------------------------------------------|
|-----------------------------------------------------|
|-----------------------------------------------------|  (4x)
|-9-9-9-9(4x)--12-12-12-12(2x)--14-14-14-14(2x)-------|  All tremelo picked
|-----------------------------------------------------|
|-----------------------------------------------------|
Suggest correction
comments
print report bad tab
4 comments total. Showing first comments.
0 reply
mistaman 295 wrote on August 4 2007, 12:35 am

this tab is totally right on. i mean, not as complicated as it could be, you definitely get the idea. you should tab some more of their songs, I saw them live, theyre amazing

+1 reply
Dead Marshal 93 wrote on March 27 2008, 11:37 pm

main riff

|----------------|-----------------|-----------------|--------------|
|-------12-------|-----------------|-------12--------|------(7)-----|
|----------9-----|----------9------|----------9------|--------------|
|-99999-------12-|-99999-12---12---|-99999-------12--|-99999--------|
|----------------|-----------------|-----------------|--------------|
|----------------|-----------------|-----------------|--------------|

+1 reply
Dead Marshal 93 wrote on March 27 2008, 11:37 pm

main riff

|----------------|-----------------|-----------------|--------------|
|-------12-------|-----------------|-------12--------|------(7)-----|
|----------9-----|----------9------|----------9------|--------------|
|-99999-------12-|-99999-12---12---|-99999-------12--|-99999--------|
|----------------|-----------------|-----------------|--------------|
|----------------|-----------------|-----------------|--------------|

guest
You may want to rate the tab now too:
select rating
Wanna post a correction for this tab? Suggest correction