Oops, an error
Loading. Please wait.

Walls Have Eyes Bass Tab

173 views 1 this week
no commentswrite comment
1 2 3 4 5
3 more votes to show rating
add to favorites
launch autoscroll
font size
0
reset
guitar tuner
Autoscroll
slow
fast
+/-
esc
set tempo
stop
Help us to improve Ultimate-Guitar.com Take our survey!
×
Author
Difficulty
novice
Artist: The Photo Atlas
Song: The Walls Have Eyes
Tuning: Standard
Effects: Distortion
Tabbed By: Schuyler Burks

Verse
G[-------------|
D[------5------|
A[33333--666666
E[-------------

Pre-Chorus
G[-------------|
D[-------------|
A[3--3--3--3-3-|
E[-------------|

Chorus
G[--------------------------------|
D[--------------------------------|
A[0111111-0333333-0555555-0666666-|
E[--------------------------------|

Post-Chorus
G[-------------|
D[-------------|
A[-------3-3-3-|
E[-------------|

Bridge
G[-------------------------------|
D[-------------------------------|
A[01------03------05------06-----|
E[-------------------------------|

Final Verse
G[--------------------------|
D[------5-------------------|
A[33333--66666633333--------|
E[--------------------------|

Structure:
Verse Riff x16
Pre-Chorus x2
Verse Riff x8
Pre-Chorus x4
Chorus Riff x6
Post-Chorus x4
Chorus Riff x2
Bridge x2
(Clapping/Guitar)
Final Verse x4
Post-Chorus x4

Nothing too special. Very dance like. I play with both gain on my amp and distortion on 
pedals. Sounds perfect, lets it rumble.

Lyrics:
am i alone?
there's no one behind me
following closely
my own despise
oh god, every single day i've wasted
in the blink of a moment
it changed my mind
are you alone?
there's no one behind
check in the review
your own despise
oh god, every single day you've wasted
in the blink of a moment
it changed your life
no problem
don't force it
my problem
don't force it
oh oh
i can't remember who it was
i can't remember who she was
i can't remember who it was
i can't remeber who is wasn't
i'll be there on the floor
i can't remember who she was
i can't remember who she wasn't
i'll be there on the floor
Suggest correction
Give kudos to tab author, rate the tab!
1 2 3 4 5
comments
print report bad tab
guest
You may want to rate the tab now too:
select rating
Wanna post a correction for this tab? Suggest correction