Oops, an error
Loading. Please wait.

Oregon My Only True Friend Tab

171 views 1 this week
no commentswrite comment
1 2 3 4 5
3 more votes to show rating
add to favorites
launch autoscroll
font size
0
reset
how to read this tab
guitar tuner
Autoscroll
slow
fast
+/-
esc
set tempo
stop
Help us to improve Ultimate-Guitar.com Take our survey!
×
               Song - Oregon, My Only True Friend
              Artist - The Physics of Meaning
               Album - Self Titled
========================================================================

Tabs by: SteveTheDreamer
email: SteveTheAvidDreamer@gmail.com


Tuning - Standard (EADGBe)


e|-------------------|
B|-------------------|
G|--2-2-2-2-2-2-2-2--|
D|-5-5-5-5-5-5-5-5---|
A|-------------------|
E|-------------------|

        Oregon...   My   Only___  True-Friend,  Hows the weather there...
e|--------------------------------------------------------------------------|
B|--------------------------------------------------------------------------|
G|--2-2-2-2-2-2-2-2-2---2-2-2-2-2-2-2-2-2-2-2-2-2-2--2-2-2-2-2--------------|
D|-5-5-5-5-5-3-3-3----------------------------------------------------------|
A|-----------------3---1-1-1-1-1-3-3-----------3-3--1-1-1-1-1---------------|
E|-----------------------------------1-1-1-1-1------------------------------|

                          Oregon,   My Favorite Enemy____  Have you missed me
e|---------------------------------------------------------------------------|
B|---------------------------------------------------------------------------|
G|-------------------2-2-2-2-2-2-2-2-2-2-2-2-2-2-2-2-2-2-2-2-2-2-2-2-2-2-2-2-|
D|---0-2-5-3-2-3-5--5-5-5-5-5-3-3-3------------------------------------------|
A|1-3-------------------------------3-1-1-1-1-1-3-3-----------3-3-1-1-1-1-1--|
E|--------------------------------------------------1-1-1-1-1----------------|
D|---------------------------------------------------------------------------|
                      Gone_______(Back?)__ Not____      Forgotten...
e|--------------------------------------------------------------------------|
B|--------------------------------------------------------------------------|
G|--------------------3-3-3-3-3-3-3-3-3-3-3--2-2-2-2-2-2-2-2-2-2-2-2-2-2-2--|
D|---0-2-5-3-2-3-5---5-5-5-5-5-----2-2-2-2--3-3-3-3-3-----------------------|
A|1-3--------------------------5-5--------------------3-3-0-1-1-1-1-1-1-0---|
E|--------------------------------------------------------------------------|


e|--------------------------------------------------------------------------|
B|--------------------------------------------------------------------------|
G|---2-2-2-2-2-2-2--2-2-2-2-0-0-0-0-0-0-0-0---------------------------------|
D|--------------0-----------------------------------------------------------|
A|-----------------3-3-3-3-3-3-3-3-3-3-3-3----------------------------------|
E|--3-3-3-3-3-3-------------------------------------------------------------|


(Chorus)
        Oregon...   Your Stupid Pretty Frame__ Leaves No one to blame....
e|--------------------------------------------------------------------------|
B|--------------------------------------------------------------------------|
G|---2-2-2-2-2-2-2-2-2---2-2-2-2-2-2-2-2-2-2-2-2-2-2-2-2-2-2-2--------------|
D|--5-5-5-5-5-3-3-3---------------------------------------------------------|
A|------------------3---1-1-1-1-1-3-3-----------3-3-1-1-1-1-1---------------|
E|------------------------------------1-1-1-1-1-----------------------------|

                          Oregon, My MostPainful Memories, Have you missed me
e|---------------------------------------------------------------------------|
B|---------------------------------------------------------------------------|
G|-------------------2-2-2-2-2-2-2-2-2-2-2-2-2-2-2-2-2-2-2-2-2-2-2-2-2-2-2-2-|
D|---0-2-5-3-2-3-5--5-5-5-5-5-3-3-3------------------------------------------|
A|1-3-------------------------------3-1-1-1-1-1-3-3-----------3-3-1-1-1-1-1--|
E|--------------------------------------------------1-1-1-1-1----------------|

                     Gone______   (Back?)  Not_______   Forgotten...
e|--------------------------------------------------------------------------|
B|--------------------------------------------------------------------------|
G|--------------------3-3-3-3-3-3-3-3-3-3-3-3-2-2-2-2-2-2-2-2-2-2-2-2-2-2-2-|
D|---0-2-5-3-2-3-5---5-5-5-5-5-----2-2-2-2-3-3-3-3-3------------------------|
A|1-3--------------------------5-5-------------------3-3-0-1-1-1-1-1-1-0----|
E|--------------------------------------------------------------------------|

e|--------------------------------------------------------------------------|
B|--------------------------------------------------------------------------|
G|--2-2-2-2-2-2-2--2-2-2-2-0-0-0-0-0-0-0-0----------------------------------|
D|-------------0------------------------------------------------------------|
A|----------------3-3-3-3-3-3-3-3-3-3-3-3-----------------------------------|
E|-3-3-3-3-3-3--------------------------------------------------------------|


  (Outro)

        Repeat 7x Times
e|-----------------------------------|
G|-----------------------------------|
B|----2-2-2-2-2-2-2-2-2-2-2-2-2-2----|
D|-----------------------------------|
A|---1-1-1-1-1---------------3-3-----|
E|-------------3-3-1-1-1-1-1---------|


     The 7th time repeat like this at the very end
e|----------------------------------------------------------|
G|----------------------------------------------------------|
B|----2-2-2-2-2-2-2-2-2-2-2-2-2-2--2-2-2-2-2-----2---2---2--|
D|----------------------------------------------------------|
A|---1-1-1-1-1---------------3-3--1-1-1-1-1-----------------|
E|-------------3-3-1-1-1-1-1-------------------3---3-----1--|


There is also alot of wind instruments throughout the song,
and some great Violin and Xylophone work during the outro.

I might have some of the lyrics wrong since its hard to hear exactly what he says at some parts.
Please email me if you think anything should be changed.

Tabs by: SteveTheDreamer
email: SteveTheAvidDreamer@gmail.com
Suggest correction
Give kudos to tab author, rate the tab!
1 2 3 4 5
comments
print report bad tab
guest
You may want to rate the tab now too:
select rating
Wanna post a correction for this tab? Suggest correction