Oops, an error
Loading. Please wait.

Can You Hear It Tab

99 views 1 this week
no commentswrite comment
1 2 3 4 5
3 more votes to show rating
add to favorites
launch autoscroll
font size
0
reset
how to read this tab
guitar tuner
Autoscroll
slow
fast
+/-
esc
set tempo
stop
Help us to improve Ultimate-Guitar.com Take our survey!
×
Author
------------------------------------------------------------------------
              Can You Hear It - THE PICTURES
------------------------------------------------------------------------

Album – Kicking Indifference

Tabbed by – Tristan Hart (tristanhart@adam.com.au)

Standard tuning

The timing can throw you off a bit in this song so listen to the song to 
get a feel for it.


Intro:
                           
   1       2       3       4       5       6       7      
   C                                                      
e|-------------------------------------------------------|
B|-8----------8----8---------8--------8----8-------------|
G|-10b12-----(12)-(12)------(12)-----(12)-(12)r10--9-10--|
D|-------------------------------------------------------|
A|-------------------------------------------------------|
E|-------------------------------------------------------|


   1       2       3       4       5       6        
   Em                                               
 |-------------------------------------------------|
 |-8----------8----8---------8--------8----8-------|
 |-10b12-----(12)-(12)------(12)-----(12)-(12)r10--|
 |-------------------------------------------------|
 |-------------------------------------------------|
 |-------------------------------------------------|

                                                      Start of Verse
   1       2       3       4       5       6          1   
   F                                                  C
 |-------------------------------------------------||--------|
 |-8----------8----8---------8--------8----8-------||--------|
 |-10b12-----(12)-(12)------(12)-----(12)-(12)----*||-9b10r9-|
 |------------------------------------------------*||--------|
 |-------------------------------------------------||--------|
 |-------------------------------------------------||--------|

Verse 1:

                 
C                          Em                        F
                     
    Burnin bridges as they go, the good's advance is slow
      
              C                           Em                        F
but i can't hear them, everybody's yet to see, just what you are to me

                 C (Lead 1)
they can't get near it            
           
         

Pre Chorus:


   F (Lead 2)                                             
So raise the alarm save all your brothers from harm subject 

C
everything til everyone is disarmed        
                
             F (Lead 2)           
Who said you didn't carry on who said you didn't carry on who said you 

C
didn't carry on and on
                                                           
   


Chorus 1: (Lead 1 throughout)                         
                                                
      F                Dm             Am              G  
      Can you hear it, I can hear it, can you hear it too 
      F       Dm                                   
      Can you hear it



Verse 2:                                                         
                                                                     
C                       Em                       F 
       An extraordinary show, of self respect I know
                                                                        
                     C                       Em                        F  
but you're nowhere near it, still amazing to see, so unflappaple and free


             C (Lead 1) 
they won't believe it




Pre Chorus:


    F (Lead 2)                                             
So raise the alarm save all your brothers from harm subject 

C
everything til everyone is disarmed        
                
             F (Lead 2)           
Who said you didn't carry on who said you didn't carry on who said you 

C
didn't carry on and on
        



Chorus 2: (Lead 1 1st time through)


      F                Dm             Am              G
      Can you hear it, I can hear it, can you hear it too

      F (Lead 3)       Dm             Am              G
      Can you hear it, I can hear it, can you hear it too

           F     Dm
      Well I can, Well I can hear it

Solo 1:

   1   2   3   4   5   6   7      1   2   3   4   5   6    
   C                              Em                      
e|------------------------------|-------------------------|
B|------------------------------|-------------------------|
G|-12---12-12---12--12-12--10-9-|-12---12-12---12--12-12--|
D|------------------------------|-------------------------|
A|------------------------------|-------------------------|
E|------------------------------|-------------------------|


   1    2    3    4    5    6   
   F
e|-------------------------------||
B|-------------------------------||
G|-10-9-10-12-----12-----12-12--*||
D|------------------------------*||
A|-------------------------------||
E|-------------------------------||



Solo 2:(this is played over solo 1 after it has gone through 2 times)

      1    2    3    4    5    6    7      1    2    3    4    5    6    
      C                                    Em                            
   e|------------------------------------|------------------------------|
   B|----------13------13---13-13--------|--------12-12----12----12-12--|
   G|-14-12-14----------------------14-12|-14b16------------------------|
   D|------------------------------------|------------------------------|
   A|------------------------------------|------------------------------|
   E|------------------------------------|------------------------------|

      1    2    3    4    5    6    7     8  
      F
   e|----------------------------------------|
   B|----------13----13-~~~~~--13---15-13-15-|
   G|-14-12-14-------------------------------|
   D|----------------------------------------|
   A|----------------------------------------|
   E|----------------------------------------|

      1    2    3    4    1    2    3     4   1    2    3    4         
      C                                       Em                 
   e|-------------------|-------------------|-------------------|
   B|-17-~~~~~~~~~~~~~~~|~~~~~~~~~--15-13-15|-17---15-~~~~~~~~~~|
   G|-------------------|-------------------|-------------------|
   D|-------------------|-------------------|-------------------|
   A|-------------------|-------------------|-------------------|
   E|-------------------|-------------------|-------------------|

      1    2    3     4   1    2    3    4    1    2    3     4      
      Em                  F
   e|-------------------|-------------------|--------------------|
   B|~~~~~~~~~--15-13-15|-17-~~~~~~~~~~-b18-|-17-~~~~~~-15-13-15-|
   G|-------------------|-------------------|--------------------|
   D|-------------------|-------------------|--------------------|
   A|-------------------|-------------------|--------------------|
   E|-------------------|-------------------|--------------------|
    
      1    2    3    4    1    2    3    4    1    2    3    4
      C         C         C         C         C
   e|-------------------|-------------------|---------------------||
   B|-17-~~~~~~-17-~~~~~|-17-~~~~~~-17-~~~~~|-13-~~~~~~~~~~~~~~~~-||
   G|-------------------|-------------------|---------------------||
   D|-------------------|-------------------|---------------------||
   A|-------------------|-------------------|---------------------||
   E|-------------------|-------------------|---------------------||

Lead 1:
    1   2   3   4   1   2   3   4
 e|---------------|----------------------| 
 B|-8-------8-----|-8-------8-----~~~~~~-|
 G|-10b12---10b12-|-10b12---10b12-~~~~~~-|
 D|---------------|----------------------|
 A|---------------|----------------------|
 E|---------------|----------------------|


Lead 2:
    1   2   3   4    1   2   3   4     1   2   3   4    1   2   3   4
    F                                  C
 e|-5---5---5---5---|5---5---5---5---|-7---7---7---7---|7---7---7---7---|
 B|---8---8---8---8-|--8---8---8---8-|---8---8---8---8-|--8---8---8---8-|
 G|-----------------|----------------|-----------------|----------------|
 D|-----------------|----------------|-----------------|----------------|
 A|-----------------|----------------|-----------------|----------------|
 E|-----------------|----------------|-----------------|----------------|


Lead 3:
   F                Dm      Am      G      
e|----------------|-------|-------|-------|
B|-8--------------|-8-----|-10----|-12----|
G|-10b12r10-sl-dn-|-10b12-|-12b14-|-14b16-|
D|----------------|-------|-------|-------|
A|----------------|-------|-------|-------|
E|----------------|-------|-------|-------|

http://www.myspace.com/thepicturesmusic
Suggest correction
Give kudos to tab author, rate the tab!
1 2 3 4 5
comments
print report bad tab
guest
You may want to rate the tab now too:
select rating
Wanna post a correction for this tab? Suggest correction