Oops, an error
Loading. Please wait.

Pissin With The Catman Tab

188 views 1 this week
no commentswrite comment
1 2 3 4 5
please rate
add to favorites
launch autoscroll
font size
0
reset
how to read this tab
guitar tuner
Tab Pro tools
  • play this tab
  • loop segment
  • change instrument
  • show fretboard
  • metronome
×
Best way to learn
"Pissin With The Catman"
Autoscroll
slow
fast
+/-
esc
set tempo
stop
Contributor
----------------------------------------------------------------------------
                    Pissin' With The Catman - THE PICTURES
----------------------------------------------------------------------------

Album - Pieces of Eight

Tabbed by - Tristan Hart (tristanhart@adam.com.au)

Standard Tuning

Lead 1:
   1    2    3    4 
e|--------------------|
B|---------5----------|
G|---4b(6)--(6)r4-2---|


Lead 2:
   1     2     3    4
e|--------------------|
B|-------5-----5b-~~~-|
G|-------5-----5b-~~~-|
D|--5/7-----7---------|





Intro:

       1      2      3      4      1      2      3      4     
      Dsus4 D    D9  G    G/F# E   A                          
    e|-3----2----0---------------|---------------------------|
    B|-3----3----3---------------|---------------------------|
    G|-2----2----2---0----0------|---------------------------|
    D|-0-------------0----0------|-2------4---2---------2----|
    A|---------------------------|-0------0---0---------0----|
    E|---------------3----2----0-|---------------3b5---------|
       |____3_____| |_____3_____|                             


  1      2      3      4      1    2    3    4     1    2    3    4
  Dsus D    D9  G    G/F# E   A 
|-3----2----0---------------|--------------------|-------------------|
|-3----3----3---------------|--------------------|-------------------|
|-2----2----2---0----0------|--------------------|-------------------|
|-0-------------0----0------|-2----4----2----4-2-|----2-4----2-4--2--|
|---------------------------|-0----0----0----0-0-|----0-0----0-0--0--|
|---------------3----2----0-|--------------------|-------------------|
 |_____3_____| |_____3_____|






Verse 1:

     A/F#             A/G             A
Well I need you right now, and for forever   yeah yeah, yeah yeah  

    A/F#                   A/G             A  A    (Lead 1)        
Coz I don't ask about your ashfram, or the weather              
                                                                         
       A/F#              A/G              A                       
You've got no reason for making me feel blue  yeah yeah, yeah yeah
                                                                        
     A/F#            A/G                  E       G                
From What I know it should come quick to you



Chorus:

  A                                       
I need you, need you as much as anyone can

A/G                                 
See through, see through so if you shout it you can

*B         C#        D        D#     E     
spend some time, and roll the night away

(* - Just play root note of chords for this line until E chord)


       1      2      3      4     
      Dsus4 D    D9  G    G/F# E  
    e|-3----2----0---------------|
    B|-3----3----3---------------|
    G|-2----2----2---0----0------|
    D|-0-------------0----0------|
    A|---------------------------|
    E|---------------3----2----0-|
       |____3_____| |_____3_____| 


Verse 2:
    
A/F#              A/G           A A A
Shoot me down mr. Sam, a with a telegram

    A/F#                 A/G          A
Coz I still care for you so mr. Catman   yeah yeah, yeah yeah

     A/F#                  A/G              A
It's all so real when i've got you round my place yeah yeah, yeah yeah

     A/F#           A/G                  E                G
Just let me come on crawling back when I sink without a trace


Chorus:

  A                                       
I need you, need you as much as anyone can

A/G                                 
See through, see through so if you shout it you can

B          C#        D        D#     E      G
spend some time, and roll the night away

  A                              
I got to get through coz if it don't mean I can

A/G
love you love you so give me reason to get

B      C#        D      D#       E
off my feet, out on the street tonight


       1      2      3      4     
      Dsus4 D    D9  G    G/F# E  
    e|-3----2----0---------------|
    B|-3----3----3---------------|
    G|-2----2----2---0----0------|
    D|-0-------------0----0------|
    A|---------------------------|
    E|---------------3----2----0-|
       |____3_____| |_____3_____| 


     
       1    2    3    4    1    2    3    4
      Guitar Line
       A9
    e|-0----------------|------------------------||     
    B|-0----------------|------------------------||                    
    G|-2----------------|---------------(Lead 2)*||     
    D|-2----------------|-------------(3rd time)*||     
    A|-0----------------|------------------------||     
    E|------------------|------------------------||     
     |                  |                        ||  x4
     |                  |                        ||
     |Bass Line         |                        ||
    G|------------------|------------------------||
    D|------------------|-----------------------*||
    A|-0-0--4-0---------|-----3/5-----5-3--2----*||
    E|-------------0--2-|3--------------------3--||

     
     Sit down, get up, get out!


Guitar joins in and plays same riff as bass line x3


 
       1    2    3    4    1    2    3    4
       A                 Dsus4 D  D9 G  G/F# E
    e|------------------|--3---2---0-----------|
    B|------------------|--3---3---3-----------|
    G|------------------|--2---2---2-0---0-----|
    D|------------------|--0---------0---0-----|
    A|-0-0--4-0-~~~~~~~-|----------------------|
    E|------------------|------------3---2---0-|
                          |____3___||____3____| 

 
      
Chorus:


          A                                       
     Oh I need you, need you as much as anyone can

      A/G                                 
      See through, see through so if you shout it you can

      B          C#        D        D#     E      G
      spend some time, and roll the night away

        A                              
      I got to get through coz if it don't mean I can

      A/G
      love you love you so give me reason to get

      B      C#        D      D#       E
      off my feet, out on the street tonight


       1      2      3      4      1      2      3      4    
      Dsus4 D    D9  G    G/F# E   A                         
    e|-3----2----0---------------|---------------------------|
    B|-3----3----3---------------|---------------------------|
    G|-2----2----2---0----0------|---------------------------|
    D|-0-------------0----0------|-2------4---2---------2----|
    A|---------------------------|-0------0---0---------0----|
    E|---------------3----2----0-|---------------3b5---------|
       |____3_____| |_____3_____|                             
                                             
 
  1      2      3      4       1    2    3    4      1   2   3   4
 Dsus4 D    D9  G    G/F# E    
 -3----2----0---------------||--------------------|------------------||
 -3----3----3---------------||--------------------|------------------||
 -2----2----2---0----0------||*-------------------|-----------------*||x3
 -0-------------0----0------||*-------------------|-----------------*||
 ---------------------------||-0-0--4-0-----------|---3/5----5-3-2---||
 ---------------3----2----0-||-------------0--2--3|----------------3-||
 |_____3_____| |_____3_____|
                               Ah............ Pissin' with the Catman



       1     2     3     4       1   2   3   4 
       A                    A9
    e|----------------------0-~|~~~~~~~~~~~~~~~~-||
    B|----------------------0-~|~~~~~~~~~~~~~~~~-||
    G|-2--------2--------2--2-~|~~~~~~~~~~~~~~~~-||
    D|-2--------2--------2--2-~|~~~~~~~~~~~~~~~~-||
    A|-0--------0--------0--0-~|~~~~~~~~~~~~~~~~-||
    E|---3b(5)-----3b(5)-------|-----------------||





There you have it, any questions/ comments email me, enjoy!

For more Pictures info visit - http://www.myspace.com/thepicturesmusic
comments
We did not receive enough feedback on this tab! Please rate:
print report bad tab
1 2 3 4 5
I want to post or [tab]
guest
You may want to rate the tab now too:
select rating
Please do not post tabs as comments. Select "correction" instead!