Oops, an error
Loading. Please wait.

Without You bass

227 views 1 this week
2 commentsread comments
1 2 3 4 5
3 more votes to show rating
add to favorites
×
Save as Personal and add changes to this tab that will be seen only by you. Learn more ›
×
You can save this tab as Personal to edit and correct it or add notes. All changes will be seen only by you. Learn more »
launch autoscroll
font size
0
reset
guitar tuner
edit
Autoscroll
slow
fast
+/-
esc
set tempo
stop
Song:      'Without You'
By:        Pietasters
Album:     Willis 
Tabbed by: Justin (illihexill@aol.com)

Got some books...:
==================

G:---5-8----------7-10-------
D:-6-------5-8--8--------5-8-
A:-------6-------------6-----
E:---------------------------
B:---------------------------

You took my lovin...:
=====================

G:------------------------------------------------------------
D:-------------------------------------------1----------------
A:-3--1-4-----3--1------3--1-4----3--1---3-1------6-6-6-6-6-6-
E:--------4--------3-----------4-------3--------4-------------
B:------------------------------------------------------------

That's all...need any songs tabbed?
illihexill@aol.com or Dried_Up_Markers_Bass_Player@juno.com
Suggest correction
Creating personal tab
Creating personal tab
You can edit any tab online and save it as your Personal.

You can edit, replace or remove any tab part or add personal notes – all changes will be seen only by you.

Personal tabs can be accessed anytime from any device, even offline.
Learn more »
Give kudos to tab author, rate the tab!
1 2 3 4 5
comments
print report bad tab
2 comments total.
0 reply
RCT2head 641 Dec 15, 2007 04:52 PM

instead of the lift written for the main line it's actually a continuation
downwards

|----5-8-----|
|--6-----5-8-----5-8--|
|-----6-----5-8--6-----|
|----
-----6-----|

with a change about every four times at the ending to
be:
|-----|
|----8-5--|
|--6-----|
|-----|

0 reply
RCT2head 641 Dec 15, 2007 04:53 PM

and congratulations for this post looking all messed up to the point of illegible
way to go u-g

guest
Wanna post a correction for this tab? Suggest correction