Oops, an error
Loading. Please wait.

Im Not Sorry Bass Tab

version 2
version 2

Whole song

Interactive

1,706 views 1 this week
no commentswrite comment
1 2 3 4 5
accurate
x 3
add to favorites
launch autoscroll
font size
0
reset
guitar tuner
Autoscroll
slow
fast
+/-
esc
set tempo
stop
Help us to improve Ultimate-Guitar.com Take our survey!
×
Author
Difficulty
novice
The Pigeon Detectives - I'm Not Sorry
BASS TAB

G------------------------------------------|
D------------------------------------------|
A--7-----------7-----------7-----------7---|
E-7-----------7-----------7-----------7----|


(ignore 777777 on first time through)
G-----------------------------------------11h1411-|
D-----------------------------------11-13---------|
A-777777-999999/11\999999/11\999999---------------|
E-------------------------------------------------|


G------------------------------------------------------------------------|
D------------------------------------------7777777-666666-7777777-666666-|
A-777777----11-11---9999999-11-11-99999999-------------------------------|
E------------------------------------------------------------------------|
Suggest correction
Give kudos to tab author, rate the tab!
1 2 3 4 5
comments
print report bad tab
guest
You may want to rate the tab now too:
select rating
Wanna post a correction for this tab? Suggest correction