Oops, an error
Loading. Please wait.

Someone Pull Me Out Of Here chords

115 views 6 this week
no commentswrite comment
1 2 3 4 5
3 more votes to show rating
add to favorites
×
Save as Personal and add changes to this tab that will be seen only by you. Learn more ›
×
You can save this tab as Personal to edit and correct it or add notes. All changes will be seen only by you. Learn more »
launch autoscroll
font size
0
reset
transpose
0
reset
simplify chords
display chords
guitar tuner
edit
Autoscroll
slow
fast
+/-
esc
set tempo
stop
Strumming
There is no strumming pattern for this song yet. and get +5 IQ
It's also possible to play this in standard tuning.

To fit the chords to the lyrics i needed to shorten the following chords:
Gmaj7/F# (4X0033) to G7
Cmaj9/B  (X20010) to C9

[Verse 1]
Em               D         Em  C    G G7 Em
I don't know why I'm still sat here waiting
Em                D            Em   C  G G7 Em
One more my love, one more and I'll be up there

Am                  Em                  D                    C
|-------7-------7---|-------3-------3---|-------2--------2---|-------0-------0---|
|-----5-------5--5--|----------------0--|-----------------3--|----------------1--|
|---5-------5-------|-----2-------2-----|-----2-------2------|-----0-------0-----|
|-------------------|---2-------2-------|---0-------0--------|---2-------2-------|
|-7-------7---------|-2-------2---------|-2-------2----------|-3-------3---------|
|-7-------7---------|-2-------2---------|-0-------0----------|-------------------|
And you know,                        you know

Em                  D                    C                   C
|-------3-------3---|-------2--------2---|-------0-------0---|-------0-------0---|
|----------------0--|-----------------3--|----------------1--|-----------------1-|
|-----2-------2-----|-----2-------2------|-----0-------0-----|-----0-------0-----|
|---2-------2-------|---0-------2--------|---2-------2-------|---2-------2-------|
|-2-------2---------|-2-------2----------|-3-------3---------|-3-------3---------|
|-2-------2---------|-0-------0----------|-------------------|-------------------|
Wich step is         killing              me

[Chorus]
Am  C9  C    G  Em  G  D
Someone pull me out of here
Am  C9  C    G  Em  D  Am  C
Someone pull me out

[Verse 2]
Em               D         Em   C    G G7 Em
I don't know why I'm still down here fading
Em                   D       Em C      G G7 Em
Keep it coming. I'll keep it coming to kill me

Am                  Em                  D                    C
|-------7-------7---|-------3-------3---|-------2--------2---|-------0-------0---|
|-----5-------5--5--|----------------0--|-----------------3--|----------------1--|
|---5-------5-------|-----2-------2-----|-----2-------2------|-----0-------0-----|
|-------------------|---2-------2-------|---0-------0--------|---2-------2-------|
|-7-------7---------|-2-------2---------|-2-------2----------|-3-------3---------|
|-7-------7---------|-2-------2---------|-0-------0----------|-------------------|
And you know,                        you know

Em                  D                    C                   C
|-------3-------3---|-------2--------2---|-------0-------0---|-------0-------0---|
|----------------0--|-----------------3--|----------------1--|-----------------1-|
|-----2-------2-----|-----2-------2------|-----0-------0-----|-----0-------0-----|
|---2-------2-------|---0-------2--------|---2-------2-------|---2-------2-------|
|-2-------2---------|-2-------2----------|-3-------3---------|-3-------3---------|
|-2-------2---------|-0-------0----------|-------------------|-------------------|
Wich step is         killing              me

[Chorus]
Am  C9  C    G  Em  G  D
Someone pull me out of here
Am  C9  C    G  Em  D  Am  C
Someone pull me out


Am                  Em                  D                    C
|-------7-------7---|-------3-------3---|-------2--------2---|-------0-------0---|
|-----5-------5--5--|----------------0--|-----------------3--|----------------1--|
|---5-------5-------|-----2-------2-----|-----2-------2------|-----0-------0-----|
|-------------------|---2-------2-------|---0-------0--------|---2-------2-------|
|-7-------7---------|-2-------2---------|-2-------2----------|-3-------3---------|
|-7-------7---------|-2-------2---------|-0-------0----------|-------------------|
Don't close your     eyes, don't         turn               away

Em                  D                    C                   C
|-------3-------3---|-------2--------2---|-------0-------0---|-------0-------0---|
|----------------0--|-----------------3--|----------------1--|-----------------1-|
|-----2-------2-----|-----2-------2------|-----0-------0-----|-----0-------0-----|
|---2-------2-------|---0-------2--------|---2-------2-------|---2-------2-------|
|-2-------2---------|-2-------2----------|-3-------3---------|-3-------3---------|
|-2-------2---------|-0-------0----------|-------------------|-------------------|
I'll reach        for you              I don't want another way

[Chorus]
Am  C9  C    G  Em  G  D
Someone pull me out of here
AM  C9  C    G  Em  D  Am  C
Someone pull me out

[Verse 1]
Em               D         Em  C    G G7 Em
I don't know why I'm still sat here waiting

            
            
Suggest correction
Creating personal tab
Creating personal tab
You can edit any tab online and save it as your Personal.

You can edit, replace or remove any tab part or add personal notes – all changes will be seen only by you.

Personal tabs can be accessed anytime from any device, even offline.
Learn more »
Give kudos to tab author, rate the tab!
1 2 3 4 5
comments
print report bad tab
guest
You may want to rate the tab now too:
select rating
Wanna post a correction for this tab? Suggest correction