Oops, an error
Loading. Please wait.

Little Razorblade tab

version 2
version 2

Whole song

Interactive

845 views 1 this week
1 commentread comment
1 2 3 4 5
1 last vote to show rating
add to favorites
×
Save as Personal and add changes to this tab that will be seen only by you. Learn more ›
×
You can save this tab as Personal to edit and correct it or add notes. All changes will be seen only by you. Learn more »
launch autoscroll
font size
0
reset
how to read this tab
guitar tuner
edit
Autoscroll
slow
fast
+/-
esc
set tempo
stop
-----------------------------------------------------------------------------
                   LITTLE RAZORBLADE - The Pink Spiders
-----------------------------------------------------------------------------
Tabbed by:Anthony Cooper
Email:ajcooper@speakeasy.net

Tuning: Drop C (C G C F A D)

Yes i realize that this song isn't in Drop C but i had my guitar tuned to C so that i
learn The Darkest Nights by As I Lay Dying, then this video came on the tv and i decided
play along with it...that is why it isn't in standard...but to play it in standard take 
that i write and move it down 2 frets on each string except the low E string,
you take down 4 frets...


Intro X2
D|--------------------------------------------------------------------------|
A|--------66-77-------66-77-------66-77-99-77-66-77-------------------------|
F|--66-88-------66-88-------66-88-------------------------------------------|
C|--------------------------------------------------------------------------|
G|--------------------------------------------------------------------------|
C|--------------------------------------------------------------------------|

Verse
D|--------------------------------------------------------------------------|
A|--------------------------------------------------------------------------|
F|--11------------8------6------------------------8-------6-----------------|
C|--11-----9------8------6---------4------9-------8-------6-----------------|
G|--9--x8--9------6--x8--4--x8-----4------9-------6--x8---4--x8-------------|
C|---------9--x8-------------------4--x8--9--x8-----------------------------|

D|--------------------------------------------------------------------------|
A|---------------------------------------------------- ---------------------|
F|--------------7---7-------------------------------------------------------|
C|--9--9--------9-----9-----------------------------------------------------|
G|--9-----9-----9-------9---------------------------------------------------|
C|--9--------9--------------------------------------------------------------|

Intro X1
D|--------------------------------------------------------------------------|
A|--------66-77-------66-77-------66-77-99-77-66-77-------------------------|
F|--66-88-------66-88-------66-88-------------------------------------------|
C|--------------------------------------------------------------------------|
G|--------------------------------------------------------------------------|
C|--------------------------------------------------------------------------|

Verse
D|--------------------------------------------------------------------------|
A|--------------------------------------------------------------------------|
F|-------11----------------------8------8--------11-------------------------|
C|----11----11------8---------9----9------9---11----11------8------9-9999---|
G|--9------------8----8----9---------9------9-------------8---8----9-9999---|
C|-------------8---------9------------------------------8----------9-9999---|

D|--------------------------------------------------------------------------|
A|--------------------------------------------------------------------------|
F|--11111111----------------------------------------------------------------|
C|--11111111-8888-999-6-666-4444-8888-999-6-666-----------------------------|
G|--9-9-9-9--8888-999-6-666-4444-8888-999-6-666-----------------------------|
C|-----------8888-999-6-666-4444-8888-999-6-666-----------------------------|

Intro X2
D|--------------------------------------------------------------------------|
A|--------66-77-------66-77-------66-77-99-77-66-77-------------------------|
F|--66-88-------66-88-------66-88-------------------------------------------|
C|--------------------------------------------------------------------------|
G|--------------------------------------------------------------------------|
C|--------------------------------------------------------------------------|

D|---------------------------------------------------------------------|
A|---------------------------------------------------------------------|
F|----------7-------11-------8-----------------------------------------|
C|--9-------9-------11-------8-----------------------------------------|
G|--9-------9--x8---9--x8----6--x8-------------------------------------|
C|--9--x8--------------------------------------------------------------| X2

D|--------------------------------------------------------------------------|
A|--------------------------------------------------------------------------|
F|--13---------9-11-8--13------------9-11-8--13------16------18-------------|
C|---x-------9-9-11-8---x----------9-9-11-8---x-------x-------x-------------|
G|--11--x8---9-7-9--6--11-x8-------9-7-9--6--11--x8--14--x8--16--x16--------|
C|-----------9---------------------9----------------------------------------|

D|-------------------------------------------|
A|-------------------------------------------|
F|-------------------------------------------|
C|---11---11---11---11----------|     Intro|-| X1
G|---11---11---11---11-----------------------|
C|---11---11---11---11-----------------------|

Verse
D|-----------------------------------------------------------------------|
A|-----------------------------------------------------------------------|
F|--11-------------8-------6-----------------------8-------6-------------|
C|--11------9------8-------6-------4-------9-------8-------6-------------|
G|--9--x8---9------6--x8---4--x8---4-------9-------6--x8---4--x8---------|
C|----------9--x8------------------4--x8---9--x8-------------------------| x2

D|--------------------------------------------------------------------------|
A|--------------------------------------------------------------------------|
F|--------------7---7-------------------------------------------------------|
C|--9--9--------9-----9-------99999999--------------------------------------|
G|--9-----9-----9-------9-----99999999--------------------------------------|
C|--9--------9----------------99999999--------------------------------------|

D|--------------------------------------------------------------------------|
A|--------------------------------------------------------------------------|
F|-------11----------------------8------8--------11-------------------------|
C|----11----11------8---------9----9------9---11----11------8------9-9999---|
G|--9------------8----8----9---------9------9-------------8---8----9-9999---|
C|-------------8---------9------------------------------8----------9-9999---|

D|--------------------------------------------------------------------------|
A|--------------------------------------------------------------------------|
F|--11111111----------------------------------------------------------------|
C|--11111111-8888-999-6-666-4444-8888-999-6-666-----------------------------|
G|--9-9-9-9--8888-999-6-666-4444-8888-999-6-666-----------------------------|
C|-----------8888-999-6-666-4444-8888-999-6-666-----------------------------|

Intro X2
D|--------------------------------------------------------------------------|
A|--------66-77-------66-77-------66-77-99-77-66-77-------------------------|
F|--66-88-------66-88-------66-88-------------------------------------------|
C|--------------------------------------------------------------------------|
G|--------------------------------------------------------------------------|
C|--------------------------------------------------------------------------|

D|--------------------------------------------------------------------------|
A|--------------------------------------------------------------------------|
F|--------------------------------------------------------------------------|
C|--4-----------------------------------------------------------------------|
G|--4-----------------------------------------------------------------------|
C|--4-----------------------------------------------------------------------|

and that's it. very simple


| /  slide up
| \  slide down
| h  hammer-on
| p  pull-off
| ~  vibrato
| +  harmonic
| x  Mute note
=============================================================================
Suggest correction
Creating personal tab
Creating personal tab
You can edit any tab online and save it as your Personal.

You can edit, replace or remove any tab part or add personal notes – all changes will be seen only by you.

Personal tabs can be accessed anytime from any device, even offline.
Learn more »
Give kudos to tab author, rate the tab!
1 2 3 4 5
comments
print report bad tab
1 comment total.
0 reply
AK-47 10 Aug 29, 2006 03:01 PM

Stupid

guest
Wanna post a correction for this tab? Suggest correction