Oops, an error
Loading. Please wait.

Soft Smoke tab

version 1
version 1

Whole song

839 views 3 this week
5 commentsread comments
1 2 3 4 5
1 last vote to show rating
add to favorites
×
Save as Personal and add changes to this tab that will be seen only by you. Learn more ›
×
You can save this tab as Personal to edit and correct it or add notes. All changes will be seen only by you. Learn more »
launch autoscroll
font size
0
reset
how to read this tab
guitar tuner
edit
Autoscroll
slow
fast
+/-
esc
set tempo
stop
Author
Difficulty
-------------------------------------------------------------------------------
                             Soft Smoke - The Pink Spiders
-------------------------------------------------------------------------------
Tabbed by: adslam3
Email:

Tuning: Standard

Intro/Main Riff
e|--------------------------------------------------------------------------|
B|--------------------------------------------------------------------------|
G|--7------------------5h7b-5-7b-5-7b-5-------------------------------------|
D|--7--7--9--9-----5-7------------------7-----------------------------------|
A|--5--7--9--9--------------------------------------------------------------|
E|-----5--7--7--------------------------------------------------------------|

e|---------------------------------------------------------------------------|
B|---------------------------------------------------------------------------|
G|--------------5-7b-5-7b-5-7b-5b--------------------------------------------|
D|--7-7-----5-7--------------------------------------------------------------|
A|--7-7----------------------------------------------------------------------|
E|--5-5----------------------------------------------------------------------|

e|---------------------------------------------------------------------------|
B|---------------------------------------------------------------------------|
G|--------------5-7b-7b-7b-7b-7-5--------------------------------------------|
D|--9-9-----5-7-------------------7------------------------------------------|
A|--9-9----------------------------------------------------------------------|
E|--7-7----------------------------------------------------------------------|

e|---------------------------------------------------------------------------|
B|---------------------------------------------------------------------------|
G|-----------------5-7b-5-7b-5-7b-5b-----------------------------------------|
D|--7-7------5-7-------------------------------------------------------------|
A|--7-7----------------------------------------------------------------------|
E|--5-5----------------------------------------------------------------------|

Verse (I'm not showing strumming; Changes are easy to hear)
e|--------------------------------|---------|-------------------------------|
B|--------------------------------|---------|-------------------------------|
G|--------------------------------|-7-------|-------------------------------|
D|-9--------7--------5----7----9--|-7-7-9-9-|-------------------------------|
A|-9--------7--------5----7----9--|-5-7-9-9-|-------------------------------|
E|-7--------5--------3----5----7--|---5-7-7-|-------------------------------|
(After Verse go back to main riff)

Chorus (Strumming not shown, listen for changes)
e|--------------------------------------------------------------------------|
B|--------------------------------------------------------------------------|
G|-7--------9------------------7--------------------------------------------|
D|-7--------9--------7----5----7--------------------------------------------|
A|-5--------7--------7----5----5--------------------------------------------|
E|-------------------5----3-------------------------------------------------|

Bridge: AT about 2:10 it goes something like this (strumming not shown)
e|---------------------------------------------------------------------------|
B|---------------------------------------------------------------------------|
G|---------------------------------7----9------------------------------------|
D|-9-------------7-7-7--5-------7--7----9---9--------------------------------|
A|-9--(16 times)-7-7-7--5-------7--5----7---9--------------------------------|
E|-7-------------5-5-5--3-------5-----------7--------------------------------|

It's not perfect, but...
Listen to the song and you'll know what to do
and when to go back to the main riff and everything
Leave corrections and whatnot in the "comments" section.
Thanks

| /  slide up
| \  slide down
| h  hammer-on
| p  pull-off
| ~  vibrato
| +  harmonic
| x  Mute note
===============================================================================

            
            
Suggest correction
Creating personal tab
Creating personal tab
You can edit any tab online and save it as your Personal.

You can edit, replace or remove any tab part or add personal notes – all changes will be seen only by you.

Personal tabs can be accessed anytime from any device, even offline.
Learn more »
Give kudos to tab author, rate the tab!
1 2 3 4 5
comments
print report bad tab
5 comments total. Showing first comments.
0 reply
FinderofNemo 337 May 09, 2007 03:37 PM

Thanks For Tabbing This, It Sounds Mostly Right Too

0 reply
adslam3 1,342 May 12, 2007 12:53 PM

thanks a bunch and you're welcome...the bridge is definitely wrong though, sorry!

0 reply
ShrimpthePimp 785 Jul 30, 2007 02:47 PM

intro and bridge is wrong,
i think i might tab it out myself.

guest
You may want to rate the tab now too:
select rating
Wanna post a correction for this tab? Suggest correction