Oops, an error
Loading. Please wait.

Wise Up ukulele

17 views 1 this week
no commentswrite comment
1 2 3 4 5
2 more votes to show rating
add to favorites
×
Save as Personal and add changes to this tab that will be seen only by you. Learn more ›
×
You can save this tab as Personal to edit and correct it or add notes. All changes will be seen only by you. Learn more »
launch autoscroll
font size
0
reset
transpose
0
reset
display chords
guitar tuner
edit
Autoscroll
slow
fast
+/-
esc
set tempo
stop
Strumming
There is no strumming pattern for this song yet. and get +5 IQ
-------------------------------------------------------------------------------
                       Wise Up - Planet Smashers
-------------------------------------------------------------------------------
Tabbed by: Andy Heidt
Email: andythecripple@hotmail.com

Tuning: standard

Intro/ PreVerse                      
|-5---7---7---7---|
|-5---9---7---9---|
|-6---9---6---9---|
|-7---9---7---9---|
|-7---7---7---7---|
|-5---7---5---7---|
  C   G   C   G

Verse
                  x3                   x1
|-7-----------5---|  |-7-----------7---|
|-7-----------5---|  |-7-----------9---|
|-7-----------6---|  |-7-----------9---|
|-9-----------7---|  |-9-----------9---|
|-9-----------7---|  |-9-----------7---|
|-7-----------5---|  |-7-----------7---|
  Dm          C        Dm          G

Verse transition (between 1st and 2nd half of verses)
|-5---7---|
|-5---9---|
|-6---9---|
|-7---9---|
|-7---7---|
|-5---7---|
  C   G   

Chorus
|-5---7---5---7---|
|-5---9---7---9---|
|-6---9---7---9---|
|-7---9---7---9---|
|-7---7---5---7---|
|-5---7---5---7---|
  C   G   F   G

Riding high on a losing streak out of touch with reality
Haven't left the house for over a week common sense has sprung a leak again
You've been burned and you felt the pain,
you run out and you do it again
Humanoids are hard to train shut your mouth and don't complain just
Wise up, wise up and you'll no how to do it right next time
You can't figure out what you want
losing your train wreck of thought think you're above the law but you're not,
learnt that lesson but you forgot
Your good life dreams a fake
Holding out for your big break
Keep repeating your mistakes wise up for your own sake just
Wise up, wise up and you'll know how to do it right next time
Still life keeps dragging on trying to figure out what went wrong
Later on may be too late the time is now to instigate a change

-------------------------------------------------------------------------

            
            
Suggest correction
Creating personal tab
Creating personal tab
You can edit any tab online and save it as your Personal.

You can edit, replace or remove any tab part or add personal notes – all changes will be seen only by you.

Personal tabs can be accessed anytime from any device, even offline.
Learn more »
Give kudos to tab author, rate the tab!
1 2 3 4 5
comments
print report bad tab
guest
Wanna post a correction for this tab? Suggest correction