Oops, an error
Loading. Please wait.

Harbour Lights Bass Tab

25 views 1 this week
no commentswrite comment
1 2 3 4 5
3 more votes to show rating
add to favorites
launch autoscroll
font size
0
reset
guitar tuner
Autoscroll
slow
fast
+/-
esc
set tempo
stop
Help us to improve Ultimate-Guitar.com Take our survey!
×
Author
Difficulty
intermediate
[Verse 1]: "I saw the harbor lights..."
G|--------------------------------------------------------------------|
D|-----------------------3-------3-------------------------3-------3--|
A|-----3------3------3-------3-------3---3---3-----3---3-------3------|
E|---------3-----0------------------------------3---------------------|

[Verse 2]: "I watched the harbor lights..."
G|--------------------------------------------------------------------|
D|-----------------------3-------3-------------------------3-------3--|
A|-----3------3------3-------3-------3---3---3-----3---3-------3------|
E|---------3-----0------------------------------3---------------------|

[Bridge]: "I long to hold you near and kiss you..."
G|-----------------------------------2--5--5-----2--5--------3--7--------3--7-----------------5---|
D|--------------3--5--5--5--3-----3-----------3-----------5-----------5--------5--------5--5------|
A|-3------1--5-----------------5-----------------------3-----------5--------------3--3------------|
E|----1-------------------------------------------------------------------------------------------|

[Verse 3]: "Now I know lonely nights..."
G|--------------------------------------------------------------------|
D|-----------------------3-------3-------------------------3-------3--|
A|-----3------3--3---3-------3-------3---3---3-----3---3-------3------|
E|---------3------------------------------------3---------------------|

[Bridge]: "I long to hold you near and kiss you..."
G|-------------------------------------------------------------------------------------------------------5--|
D|-3-3-3-3-3-3-3-3-3-------3-----------3--5--------------------------------------------------------5--5-----|
A|-------------------1--5--------1--5--------------3-----------3--5-----2--5--2-----2--3-----3--3-----------|
E|----------------------------1--------------1--5-----5--1--5--------3-----------3--------3-----------------|

[Verse 4]: "Now I know lonely nights..."
G|-------------------------------------------------------|
D|-------------------------------------------------------|
A|---------3---------3-------3-------3---3---3-----3---3-|
E|-----3------0--3-------1-------1--------------3--------|
Suggest correction
Give kudos to tab author, rate the tab!
1 2 3 4 5
comments
print report bad tab
guest
You may want to rate the tab now too:
select rating
Wanna post a correction for this tab? Suggest correction