Oops, an error
Loading. Please wait.

Smoke Gets In Your Eyes Bass Tab

version 1
version 1

Whole song

Interactive

49 views 1 this week
no commentswrite comment
1 2 3 4 5
3 more votes to show rating
add to favorites
launch autoscroll
font size
0
reset
guitar tuner
Autoscroll
slow
fast
+/-
esc
set tempo
stop
Help us to improve Ultimate-Guitar.com Take our survey!
×
Author
Difficulty
intermediate
[Intro]
G|--------------------|
D|--------------------|
A|-6----6----6----6---|
E|--------------------|

[Verse 1]: "They asked me how I knew..."
G|--------------------------------------------------------------------------------------|
D|-----------3----8---------5----6----7----8--------------8----------------3--3--8--8---|
A|-6----6--------------6-----------------------------8---------6--6--3--3---------------|
E|----------------------------------------------6---------------------------------------|

[Verse 2]: "They, said some day you'll find..."
G|--------------------------------------------------------------------------------------|
D|-----------3----8---------5----6----7----8--------------8---------6----------4--4-4---|
A|-6----6--------------6-----------------------------8---------6---------6--6-----------|
E|----------------------------------------------6---------------------------------------|

[Bridge]: "So I chaffed them, and I gaily laughed..."
G|-------------------------6--6---------6-----6-----------------------------------------------|
D|-9----9------9----9--9------------9----------------9----9------6----8--------------8--------|
A|-----------9-----------9-------9----9----9-----9-9-----------9-----------6----6-------------|
E|----------------------------------------------------------------------------------------6---|

[Verse 3]: "Now, laughing friends deride..."
G|-----------------------------------------------------------------------------------------|
D|-----------3----8---------5----6----7----8--------------8--------------------------------|
A|-6----6--------------6-----------------------------8-----------------------------------6-|
E|----------------------------------------------6------------------------------------------|
Suggest correction
Give kudos to tab author, rate the tab!
1 2 3 4 5
comments
print report bad tab
guest
You may want to rate the tab now too:
select rating
Wanna post a correction for this tab? Suggest correction