Oops, an error
Loading. Please wait.

Twilight Time Bass Tab

22 views 1 this week
no commentswrite comment
1 2 3 4 5
3 more votes to show rating
add to favorites
launch autoscroll
font size
0
reset
guitar tuner
Autoscroll
slow
fast
+/-
esc
set tempo
stop
Help us to improve Ultimate-Guitar.com Take our survey!
×
Author
Difficulty
[Intro]
G|--------------|
D|--------------|
A|------------7-|
E|--------------|


[Verse 1]: "Heavenly shades of night are falling..."
G|------------------------------------------------------------------------|
D|-7---------------4---4-------7--7--------------7---4--------------------|
A|-----7---4---4-----------7----------5---5--5---------------9---7--7--7--|
E|-------------------------------------------------------7----------------|


[Verse 2]: "Deepening shadows gather splendor..."
G|---------------------------------------------------------------------|
D|-7---------------4---4-------7--7-----------7---4-----------7-----7--|
A|-----7---4---4-----------7----------5---5---------------7------5-----|
E|----------------------------------------------------7----------------|


[Bridge]: "Here, in the afterglow of day..."
G|-6--4-----------------6--------6------------------------------------------------------------------|
D|-------6--3-----3--6-----4--6--------4-----4--4--9--7-----------------9---------------------------|
A|-------------4--------------------4-----4--------------9--6-----6--9-----7-----7--7--7--------7-7-|
E|-------------------------------------------------------------7--------------7-----------8--7------|


[Verse 2]: "Deep in the dark your kiss will thrill me..."
G|---------------------------------------------------------------------|
D|-7---------------4---4-------7--7-----------7---4-----------7-----7--|
A|-----7---4---4-----------7----------5---5---------------7------5-----|
E|----------------------------------------------------7----------------|


[Bridge]: "Here, in the afterglow of day..."
G|-6--4-----------------6--------6------------------------------------------------------------------|
D|-------6--3-----3--6-----4--6--------4-----4--4--9--7-----------------9---------------------------|
A|-------------4--------------------4-----4--------------9--6-----6--9-----7-----7--7--7--------7-7-|
E|-------------------------------------------------------------7--------------7-----------8--7------|


[Verse 2]: "Deep in the dark your kiss will thrill me..."
G|-------------------------------------------------------------------------------------|
D|-7---------------4---4-------7--7-----------7---4-----------7---4------------------7-|
A|-----7---4---4-----------7----------5---5---------------7------------------7---------|
E|----------------------------------------------------7--------------7-----------------|
Suggest correction
Give kudos to tab author, rate the tab!
1 2 3 4 5
comments
print report bad tab
guest
You may want to rate the tab now too:
select rating
Wanna post a correction for this tab? Suggest correction