Oops, an error
Loading. Please wait.

Ball And Chain Bass Tab

2,273 views 1 this week
no commentswrite comment
1 2 3 4 5
2 more votes to show rating
add to favorites
launch autoscroll
font size
0
reset
guitar tuner
Autoscroll
slow
fast
+/-
esc
set tempo
stop
Help us to improve Ultimate-Guitar.com Take our survey!
×
Author
Difficulty
novice
'BALL AND CHAIN' by THE PLIGHT

Standard Tuning

|------------------------------------|
|------------------------------------| 
|------5h7-5-------------------------| x8
|-0--0---------0-2-3---0-3-5-6-5-3-0-|

|---------------------------------------------------------|
|---------------------------------------------------------|
|----------------------------------------------5----5-5-5-| x2
|-0--0--0--0--0-0-0-3--3-3-3-0--0--0--0--0-0-0------------|

|------------------------------------|
|------------------------------------| 
|------5h7-5-------------------------| x4
|-0--0---------0-2-3---0-3-5-6-5-3-0-|

|---------------------------------------------------------|
|---------------------------------------------------------|
|----------------------------------------------5----5-5-5-| x2
|-0--0--0--0--0-0-0-3--3-3-3-0--0--0--0--0-0-0------------|

|-------------------------------------------------------------|
|-------------------------------------------------------------|
|---------------------------------------------------5---5-5-5-| x2
|-0-0-0-0-0-0-0-0-5-7-3---3-3-3-0-0-0-0-0-0-0-0-5-7-----------|

|-----------------------------7---7-------------------------------|
|-------------------5---5-7h9-------9-----------------------------|
|---------5---5-5h7---------------------------5---5---------------| x4
|-0-0-5h7-----------------------------0-0-5h7-------7-5-5--7-5-3--|

|------------------------------------|
|------------------------------------| 
|------5h7-5-------------------------| x4
|-0--0---------0-2-3---0-3-5-6-5-3-0-|

|------------------------------|
|------------------------------|
|------------------------------| x3
|-0~---------------------------|

|------------------------------------------------------|
|------------------------------------------------------|
|----------------------5-5-5-5-5-5-5-5-7-7-7-7-7-7-7-7-| x1
|-0----------------------------------------------------|

|-9-7--------------------------|
|-----9-7-5-7-5----------------|
|---------------7--7-5-7--7-5--| x3
|------------------------------|

|----------------------------------|
|-4-4-4-4-4-4-4-4-5-5-4-4----------|
|--------------------------7-7-5-5-| x1
|----------------------------------|

|------------------------------------|
|------------------------------------| 
|------5h7-5-------------------------| x8
|-0--0---------0-2-3---0-3-5-6-5-3-0-|

http://www.myspace.com/theplight  
Suggest correction
Give kudos to tab author, rate the tab!
1 2 3 4 5
comments
print report bad tab
guest
You may want to rate the tab now too:
select rating
Wanna post a correction for this tab? Suggest correction