Oops, an error
Loading. Please wait.

Wife Beater Tab

3,395 views 6 this week
2 commentsread comments
1 2 3 4 5
excellent!
x 2
add to favorites
launch autoscroll
font size
0
reset
how to read this tab
guitar tuner
Tab Pro tools
  • play this tab
  • loop segment
  • change instrument
  • show fretboard
  • metronome
Autoscroll
slow
fast
+/-
esc
set tempo
stop
Contributor
Difficulty
Tuning
intermediate
B F# B E G# C#
Tabbed by:
Aaron
Tuning:
dropB

Im about 95% sure this tab is correct but correct me if im wrong.



intro: "this house was trashed..." 2x
e|-----------------------------------0---------------------------------------|
B|-----------------------------------0---------------------------------------|
G|-----------------------------------0---------------------------------------|
D|-1--11-11-1--11-11-11--11-11-1-1-1---1-1-----------------------------------|
A|-0--00-00-0--00-00-00--00-00-0-0-0---0-0-----------------------------------|
E|-1--11-11-1--11-11-11--11-11-1-1-1---1-1-----------------------------------|
   .  .. .. .  .. .. ..  .. .. . . .   . .

guitar1   guitar2
e|------|-----------------------------------------------------------------------|
B|------|-----------------------------------------------------------------------|
G|------|-----------------------------------------------------------------------|
D|-0~~~-|-----------------------------------------------------------------------|
A|-0~~~-|---------------------13--12---------------------5---3------------------|
E|-0~~~-|-0-0-12-0-12-13--0-0---12--12--0-0-12-0-12-13--3-3-2-2-----------------|


(both guitars)
e|---------------------------------------------------------------------------|
B|---------------------------------------------------------------------------|
G|---------------------------------------------------------------------------|
D|---------------------------------------------------------------------------|
A|--------------------13--12---------------------5---3-----------------------|
E|-0-0-12-0-12-13--0-0--12--12--0-0-12-0-12-13--3-3-2-2----------------------|

e|---------------------------------------------------------------------------|
B|---------------------------------------------------------------------------|
G|---------------------------------------------------------------------------|
D|--------------------------------1111-1-1~~---------------------------------|
A|---------------------13--12-----0000-0-0~~-3-------------------------------|
E|-0-0-12-0-12-13--0-0---12--12-0-1111-1-1~~--1------------------------------|
                                  .... . .
e|---------------------------------------------------------------------------|
B|---------------------------------------------------------------------------|
G|---------------------------------------------------------------------------|
D|---------------------------------------------------------------------------|
A|--------------------13--12---------------------5---3-----------------------|
E|-0-0-12-0-12-13--0-0--12--12--0-0-12-0-12-13--3-3-2-2----------------------|

e|-------------------------------------------------------|
B|-------------------------------------------------------|
G|-------------------------------------------------------|
D|-------------------------------------------------------|
A|--------------------13--12--------------------5---3----|
E|-0-0-12-0-12-13--0-0--12--12--0-0-12-0-12-12-3-3-2-2---|

guitar1
e|----------------------------------------------------------------------------------------------|
B|----------------------------------------------------------------------------------------------|
G|----------------------------------------------------------------------------------------------|
D|----------------------------------------------------------------------------------------------|
A|-0-0-0-0-----0-0-000-0-0-0-----0-0-000-0-0-0-0-0-0-0-0-0-0-0-0-0-0-000-0-0-0-0-0-0-0-0-0-0-0-0|
E|-0-0-0-0-----0-0-000-0-0-0-----0-0-000-0-0-0-0-0-0-0-0-0-0-0-0-0-0-000-0-0-0-0-0-0-0-0-0-0-0-0|
   . . . .     . . ... . . .     . . ... . . . . . . . . . . . . . . ... . . . . . . . . ....

e|---------------------------------------------------------------------------|
B|---------------------------------------------------------------------------|
G|---------------------------------------------------------------------------|
D|---------------------------------------------------------------------------|
A|-0-00----------------------------------------------------------------------|
E|-0-00----------------------------------------------------------------------|
   . ..

guitar1
e|---------------------------------------------------------------------------|
B|---------------------------------------------------------------------------|
G|---------------------------------------------------------------------------|
D|---------------------------------------------------------------------------|
A|-5-5-5-5-5-5-5-5-5-4-4-4-4-4-4-4-1-1-1-1-1-1-1-1-1-1-1-1-1-1-1-1-----------|
E|---------------------------------------------------------------------------|


e|-----------------------------------------------------------------------------|
B|-----------------------------------------------------------------------------|
G|-7-7-7-7-7-7-7-7-9-9-9-910101010-12-12-12-12-12-12-12-12-9-9-9-910101010-----|
D|-----------------------------------------------------------------------------|
A|-5-5-5-5-5-5-5-5-7-7-7-7-8-8-8-8-10-10-10-10-10-10-10-10-7-7-7-7-8-8-8-8-----|
E|-----------------------------------------------------------------------------|


e|-----------------------------------------------------------------------------------|
B|-----------------------------------------------------------------------------------|
G|-7-7-7-7-7-7-7-7-9-9-9-910101010-12-12-12-12-12-12-12-12-14-14-14-14-15-15-15-15---|
D|-----------------------------------------------------------------------------------|
A|-5-5-5-5-5-5-5-5-7-7-7-7-8-8-8-8-10-10-10-10-10-10-10-10-12-12-12-12-13-13-13-13---|
E|-----------------------------------------------------------------------------------|


"I don't know what you expect from me anymore. I have made mistakes but that's not me anymore"
e|-----------------------------------|------------------------------------------|
B|-----------------------------------|------------------------------------------|
G|------------play-2x----------------|-----------play-2x------------------------|
D|-----------------------------------|------------------------------------------|
A|-000-0-0-000---000-00-0--0-0000----|-000-0-0-0000-0-0-0-000--00-0-0000--------|
E|-000-0-0-000---000-00-0--0-0000----|-000-0-0-0000-0-0-0-000--00-0-0000--------|
   ... . . ...   ... .. .  . ....      ... . . .... . . . ...  .. . ....

e|----------------------|
B|-3--------------------|
G|-6B------play-2x------|
D|----------------------|
A|----0-0-0-0-00--0-----|
E|----0-0-0-0-00--0-----|
      . . . . ..  .

e|-------------------------------------------------------------------------------------|
B|-------------------------------------------------------------------------------------|
G|-----------------------------------play-2x-------------------------------------------|
D|-------------------------------------------------------------------------------------|
A|--------------------13----------------------------------------13---------------------|
E|-0000-13-00-12-0000----00-12-0000-5-00-5-7-0000-13-00-12-0000----00-12-0000-3-00-3-6-|
   ....    ..    ....    ..    ....   ..     ....    ..    ....    ..    ....   ..

e|---------------------------------------------------------------------------|
B|---------------------------------------------------------------------------|
G|---------------------------------------------------------------------------|
D|---------------3----------------------------1------------------------------|
A|-00-------0000----------------00-------0000--------------------------------|
E|-00-6-3-0-0000---1-0-1-0-1-0--00-6-3-0-0000--1-0-1-------------------------|
   ..       ....                ..       ....

e|---------------------------------------------------------------------------|
B|---------------------------------------------------------------------------|
G|----------------------------play-2x----------------------------------------|
D|---------------3----------------------------1------------------------------|
A|-00-------0000----------------00-------0000--------------------------------|
E|-00-6-3-0-0000---1-0-1-0-1-0--00-6-3-0-0000--1-0-1-0-1---------------------|
   ..       ....                ..       ....

e|----------------------------------------------------------------------------|
B|----------------------------------------------------6-66-5-55-6-66-5-555555-|
G|----------------9---10-9~~---------------9---10-9~~-7-77-7-77-7-77-7-777777-|
D|--------------7---7--------------------7---7----------..---..---..---......-|
A|----------------------------------------------------------------------------|
E|-6~~-2~~-3~~---------------6~~-2~~-3~~--------------------------------------|


I kind of just BSed this part so I'm not 100% sure if its right
guitar1
e|--------------------------|---------------------------|
B|-6-66-5-55-6-66-5-5555555-|-8-88-5-55-6-66-5-5555555--|
G|-7-77-7-77-7-77-7-7777777-|-7-77-7-77-7-77-7-7777777--|
D|-.-..-.-..-.-..-.-.......-|-.-..-.-..-.-..-.-.......--|
A|--------repeat-once-------|-------repeat-once---------|
E|--------------------------|---------------------------|


repeat that whole thing till the end then end with:
e|---------------------------------------------------------------------------|
B|-5~~-----------------------------------------------------------------------|
G|-7~~-----------------------------------------------------------------------|
D|---------------------------------------------------------------------------|
A|---------------------------------------------------------------------------|
E|---------------------------------------------------------------------------|


guitar2
e|------------------------|---------------------------------------------------|
B|------------------------|---------------------------------------------------|
G|------------------------|---------------------------------------------------|
D|------------------------|-0~~-----------------------------------------------|
A|-0000--0-000-0--0--000--|-0~~-----------------------------------------------|
E|-0000--0-000-0--0--000--|-0~~-----------------------------------------------|
   ....  . ... .  .  ...
repeat till the end.        end with this
comments
We did not receive enough feedback on this tab! Please rate:
print report bad tab
1 2 3 4 5
2 comments total.
0 reply
TheMetalcoreGuy wrote on June 10 2012, 03:27 am

you did recreant and wifebeater? you're ****ing awesome

0 reply
minkar_man72 wrote on June 10 2012, 06:35 pm

thanks man!

I want to post or [tab]
guest
You may want to rate the tab now too:
select rating
Please do not post tabs as comments. Select "correction" instead!