Oops, an error
Loading. Please wait.

Electrify Me tab

929 views 3 this week
2 commentsread comments
1 2 3 4 5
3 more votes to show rating
add to favorites
×
Save as Personal and add changes to this tab that will be seen only by you. Learn more ›
×
You can save this tab as Personal to edit and correct it or add notes. All changes will be seen only by you. Learn more »
launch autoscroll
font size
0
reset
how to read this tab
guitar tuner
edit
Autoscroll
slow
fast
+/-
esc
set tempo
stop
Difficulty
http://myspace.com/losplugz

I guessed at the lyrics since I couldn't find them anywhere on the web.  Lemme know if 
ain't correct.  The Plugz were punk but this is kinda ska.

Electrify Me
by the Plugz

G -  D -
G
I let this fire burn inside
D
'cuz the love I lost in the alley
G
She appeared and she disappeared
D
Into a cloud of grafitti
G	D
	grafitti
G	D
	She electrify me
G	D

G
Radioactive hair stuck in the sky
D
a plastic bag, a gun inside
G
green cowboy boots and her black straight legs
D
She electrify me
G	D
	She electrify me
G	D
	She electrify me
G	D


BASS CHORDS FOR SOLO
G -	D -
G -	D -
G -	G -
G -	G -


E ------------------|---------------------|------------------|---------------------|
B ------------------|---------------------|------------------|---------------------|
G ------------------|-7p5p4p5p4s2p0-------|-7----7----7------|-----2s4-5-7-5-4-2-0-|
D -5----5----5------|---------------0-5-7-|-7----7----7------|-0h2-----------------|
A -5----5----5------|---------------------|-5----5----5------|---------------------|
E -3----3----3------|---------------------|------------------|---------------------|


E------------------------|-------------------|
B------------------------|-------------------|
G----4---7-5-4---7-5-4---|----4--------------|
D-0-5-5--------7-------7-|-0-5-5-5-4-5-4-----|
A------------------------|---------------5-5-|
E------------------------|-------------------|

G -  D -
G
She danced and pogo'd all night long
D
She bobbed her head like a toy tin doll
G
She shook her shoulders 'round so free
D
She even danced on the ground with me
G	D
	on the ground with me
G	D
	She electrify me
G	D
	She electrify me
G	D


BASS CHORDS FOR SOLO
G -	D -
G -	D -
G -	G -
G -	G -


E ------------------|---------------------|------------------|---------------------|
B ------------------|---------------------|------------------|---------------------|
G ------------------|-7p5p4p5p4s2p0-------|-7----7----7------|-----2s4-5-7-5-4-2-0-|
D -5----5----5------|---------------0-5-7-|-7----7----7------|-0h2-----------------|
A -5----5----5------|---------------------|-5----5----5------|---------------------|
E -3----3----3------|---------------------|------------------|---------------------|


E------------------------|-------------------|
B------------------------|-------------------|
G----4---7-5-4---7-5-4---|----4--------------|
D-0-5-5--------7-------7-|-0-5-5-5-4-5-4-----|
A------------------------|---------------5-5-|
E------------------------|-------------------|


G -	D -
G -	D - G
Suggest correction
Creating personal tab
Creating personal tab
You can edit any tab online and save it as your Personal.

You can edit, replace or remove any tab part or add personal notes – all changes will be seen only by you.

Personal tabs can be accessed anytime from any device, even offline.
Learn more »
Give kudos to tab author, rate the tab!
1 2 3 4 5
comments
print report bad tab
2 comments total.
0 reply
StefanB12 10 Mar 12, 2014 08:35 AM

E --------|---------------------|-2-2-2--|----------------------|
B --------|---------------------|-3-3-3--|----------------------|
G -4-4-4--|-7p5s4-5-4-----------|-2-2-2--|--------4-5-7-5-4-----|
D -5-5-5--|-----------7-5---5-7-|-x-x-x--|-4h5h7------------7-5-|
A -5-5-5--|---------------7-----|--------|----------------------|
E -3-3-3--|---------------------|--------|----------------------| x2

E------------------------------------------|
B------------------------------------------|
G----4---7-4-5-4--------------4------------|
D--s5-5----------5-7-5-0-0--5---5-5-4-5-4--|
A-5--------------------------------------5-|
E------------------------------------------|

E-------------------------|-------------------|
B-------------------------|-------------------|
G----4---7-5-4---7-5-4----|----4--------------|
D--s5-5---------7-------5-|-0-5-5-5-4-5-4-----|
A-5-----------------------|---------------5-5-|
E-------------------------|-------------------|

0 reply
StefanB12 10 Mar 12, 2014 08:37 AM

Super Song
I hope i find one day some vinyl of the "Electrify Me - Album by The Plugz"

guest
Wanna post a correction for this tab? Suggest correction