Oops, an error
Loading. Please wait.

Bring On The Night Chords

version 2
version 2

Whole song

Interactive

7,846 views 54 this week
1 commentread comment
1 2 3 4 5
excellent!
x 4
add to favorites
launch autoscroll
font size
0
reset
transpose
0
reset
display chords
guitar tuner
Tab Pro tools
  • play this tab
  • loop segment
  • change instrument
  • show fretboard
  • metronome
×
Best way to learn
"Bring On The Night"
Autoscroll
slow
fast
+/-
esc
set tempo
stop
Contributor
Difficulty
novice
Bring On The Night
The Police


Verse 
    Em            D                C
The afternoon has gently passed me by
    Em                   D                G
The evening spreads it's sail against the sky
D           C         Em           G
Waiting for tomorrow, just another day
C       D              G
God bid yesterday good-bye

Chorus

G            A  
Bring on the night
Am              Em              D
I couldnt spend another hour of daylight
G            A   
Bring on the night
Am              Em              D
I couldnt stand another hour of daylight


    Em        D              C
The future is but a question mark
Em             D                  G
Hangs above my head, there in the dark
D                C             Em         G
Cant see for the brightness is staring me blind
C       D              G
God bid yesterday good-bye

G            A
Bring on the night
Am              Em              D
I couldnt spend another hour of daylight
G            A
Bring on the night
Am              Em              D
I couldnt stand another hour of daylight

Am              Em              D
I couldnt spend another hour of daylight
Am              Em              D
I couldnt stand another hour of daylight
comments
print report bad tab
1 comment total.
0 reply
belavista man wrote on August 6 2010, 10:57 am

You're missing a few chords here. Here's kinda what it should be like. The bass notes are included in the chord names above...


Am/C Em/C D
The afternoon has gently
e|---5-----5----(5)--3-----3----(3)--2-----2----(2)-|
B|-----5-----5---------5-----5---------3-----3------|
G|-5-----5-----5---4-----4-----4---2-----2-----2----|
D|--------------------------------------------------|
A|--------------------------------------------------|
E|--------------------------------------------------|

Am/D Em
passed me by
e|---5-----5----(5)--3-----3----(3)--7-----7----(7)-|
B|-----5-----5---------5-----5---------8-----8------|
G|-5-----5-----5---4-----4-----4---9-----9-----9----|
D|--------------------------------------------------|
A|--------------------------------------------------|
E|--------------------------------------------------|

Am/E Em

e|---5-----5----(5)--3-----3----(3)-|
B|-----5-----5---------5-----5------|
G|-5-----5-----5---4-----4-----4----|
D|----------------------------------|
A|----------------------------------|
E|----------------------------------|


Chorus seems right though :)

I want to post or [tab]
guest
You may want to rate the tab now too:
select rating
Please do not post tabs as comments. Select "correction" instead!