Oops, an error
Loading. Please wait.

Bring On The Night tab

version 3
version 3

Whole song

Interactive

226 views 3 this week
no commentswrite comment
1 2 3 4 5
1 last vote to show rating
add to favorites
×
Save as Personal and add changes to this tab that will be seen only by you. Learn more ›
×
You can save this tab as Personal to edit and correct it or add notes. All changes will be seen only by you. Learn more »
launch autoscroll
font size
0
reset
how to read this tab
guitar tuner
edit
Autoscroll
slow
fast
+/-
esc
set tempo
stop
Author
Difficulty
BRING ON THE NIGHT

As recorded by The Police
(From the 1979 Album REGGATTA DE BLANC)

Words and Music by Sting

Transcribed by Slowhand


Gtr I (E A D G B E) - 'Andy Summers - Electric Guitar 1'
Gtr II (E A D G B E) - 'Andy Summers - Electric Guitar 2'
Gtr III (E A D G B E) - 'Andy Summers - Electric Guitar 3'


 Intro
  Q=110
  N.C.
 4/4
  Gtr I (Clean El. Gtr. w/ flanger)
            PM------------------------------------------------------|
  H    Q  E E     S S E E E S S S S S S S S   S S E E E E S S S S S S
|-------------||----------------------------|-------------------------|
|-------------||o---------------------------|-------------------------|
|-------------||----------------------------|-------------------------|
|-------------||----------------------------|-------------------------|
|-----------3-||o-3-3-3-3-3-3-3-3-3-3-3-3-3-|-3-5-5-5-5-5-5-5-5-5-5-5-|
|-------------||----------------------------|-------------------------|


  PM--------------------------------------------------|
  S S E E E S S E S  S  S S   S S E E E S S S S S S S S  3x
|---------------------------|----------------------------||
|---------------------------|---------------------------o||
|---------------------------|----------------------------||
|---------------------------|---------------------5------||
|-5-7-7-7-7-7-7-7-7--7--7-7-|-7-7-7-7-7-7-7-7-7-7---7-5-o||
|-------------------(0)-----|----------------------------||


   1st & 2nd Verses
    N.C.
    Gtr II (Clean El. Gtr.)
     S  S S  S  S S  S  S S S S S S S S S
||--------0-------0-----------0-----0-----|
||o----10------10------10---8-----8-----8-|
||----------------------------------------|
||--10------10------10----9-----9-----9---|
||o---------------------------------------|
||----------------------------------------|
|
|   Gtr I
|    PM------------------------------------
|    S  S E     E    E    S S S S S S S S
||----------------------------------------|
||o---------------------------------------|
||----------------------------------------|
||----------------------------------------|
||o--3--3-3-----3----3----3-3-3-3-3-3-3-3-|
||----------------------------------------|


  S S S S S S S S  S  S S  S  S S  S  S
|-----0-----0-----------0-------0---------|
|---7-----7-----7----10------10------10\--|
|-----------------------------------------|
|-7-----7-----7---10------10------10------|
|-----------------------------------------|
|-----------------------------------------|
|
|------------------------------------|
| S S E   E   E    E    S  S  S S  S  S
|-----------------------------------------|
|-----------------------------------------|
|-----------------------------------------|
|-----------------------------------------|
|-3-5-5---5---5----5----5--5--5-5--5--5---|
|-----------------------------------------|


  S S S S S S S S   S  S S  S  S S  S  S
|-----0-----0------------0-------0-------|
|---5-----5-----5-----12------12------12-|
|----------------------------------------|
|-5-----5-----5---/12------12------12----|
|----------------------------------------|
|----------------------------------------|
|
| PM--------------------------------------
| S S E   E   E     S  S E     S S  S  S
|----------------------------------------|
|----------------------------------------|
|----------------------------------------|
|----------------------------------------|
|-5-7-7---7---7-----7--7-7-----7-7--7--7-|
|----------------------------------------|


   S  S S  S  S S  S  S S S S S S S S S
|-------0-------0-----------0-----0-----|
|----10------10------10---8-----8-----8-|
|---------------------------------------|
|-10------10------10----9-----9-----9---|
|---------------------------------------|
|---------------------------------------|
|
|-------------------------------------|
|  S  S E     E    E    S S S S S S S S
|---------------------------------------|
|---------------------------------------|
|---------------------------------------|
|---------------------------------5-----|
|--7--7-7-----7----7----7-7-7-7-7---7-5-|
|---------------------------------------|


   S  S S  S  S S  S  S S S S S S S S S
|-------0-------0-----------0-----0-----|
|----10------10------10---8-----8-----8-|
|---------------------------------------|
|-10------10------10----9-----9-----9---|
|---------------------------------------|
|---------------------------------------|
|
|  PM------------------------------------
|  S  S E     E    E    S S S S S S S S
|---------------------------------------|
|---------------------------------------|
|---------------------------------------|
|---------------------------------------|
|--3--3-3-----3----3----3-3-3-3-3-3-3-3-|
|---------------------------------------|


  S S S S S S S S  S  S S  S  S S  S  S
|-----0-----0-----------0-------0--------|
|---7-----7-----7----10------10------10\-|
|----------------------------------------|
|-7-----7-----7---10------10------10-----|
|----------------------------------------|
|----------------------------------------|
|
|------------------------------------|
| S S E   E   E    E    S  S  S S  S  S
|----------------------------------------|
|----------------------------------------|
|----------------------------------------|
|----------------------------------------|
|-3-5-5---5---5----5----5--5--5-5--5--5--|
|----------------------------------------|


  S S S S S S S S   S  S S  S  S S  S  S
|-----0-----0------------0-------0-------|
|---5-----5-----5-----12------12------12-|
|----------------------------------------|
|-5-----5-----5---/12------12------12----|
|----------------------------------------|
|----------------------------------------|
|
| PM--------------------------------------
| S S E   E   E     S  S E     S S  S  S
|----------------------------------------|
|----------------------------------------|
|----------------------------------------|
|----------------------------------------|
|-5-7-7---7---7-----7--7-7-----7-7--7--7-|
|----------------------------------------|


   S  S S  S  S S  S  S S S S S S S S S
|-------0-------0-----------0-----0-----|
|----10------10------10---8-----8-----8-|
|---------------------------------------|
|-10------10------10----9-----9-----9---|
|---------------------------------------|
|---------------------------------------|
|
|-------------------------------------|
|  S  S E     E    E    S S S S S S S S
|---------------------------------------|
|---------------------------------------|
|---------------------------------------|
|---------------------------------5-----|
|--7--7-7-----7----7----7-7-7-7-7---7-5-|
|---------------------------------------|


   S  S S  S  S S  S  S S S S S S S S S
|-------0-------0-----------0-----0-----|
|----10------10------10---8-----8-----8-|
|---------------------------------------|
|-10------10------10----9-----9-----9---|
|---------------------------------------|
|---------------------------------------|
|
|  PM------------------------------------
|  S  S E     E    E    S S S S S S S S
|---------------------------------------|
|---------------------------------------|
|---------------------------------------|
|---------------------------------------|
|--3--3-3-----3----3----3-3-3-3-3-3-3-3-|
|---------------------------------------|


  S S S S S S S S  S  S S  S  S S  S  S
|-----0-----0-----------0-------0--------|
|---7-----7-----7----10------10------10\-|
|----------------------------------------|
|-7-----7-----7---10------10------10-----|
|----------------------------------------|
|----------------------------------------|
|
|------------------------------------|
| S S E   E   E    E    S  S  S S  S  S
|----------------------------------------|
|----------------------------------------|
|----------------------------------------|
|----------------------------------------|
|-3-5-5---5---5----5----5--5--5-5--5--5--|
|----------------------------------------|


  S S S S S S S S   S  S S  S  S S  S  S
|-----0-----0------------0-------0-------|
|---5-----5-----5-----12------12------12-|
|----------------------------------------|
|-5-----5-----5---/12------12------12----|
|----------------------------------------|
|----------------------------------------|
|
| PM--------------------------------------
| S S E   E   E     S  S E     S S  S  S
|----------------------------------------|
|----------------------------------------|
|----------------------------------------|
|----------------------------------------|
|-5-7-7---7---7-----7--7-7-----7-7--7--7-|
|----------------------------------------|


   S  S S  S  S S  S  S S S S S S S S S
|-------0-------0-----------0-----0-----|
|----10------10------10---8-----8-----8-|
|---------------------------------------|
|-10------10------10----9-----9-----9---|
|---------------------------------------|
|---------------------------------------|
|
|-------------------------------------|
|  S  S E     E    E    S S S S S S S S
|---------------------------------------|
|---------------------------------------|
|---------------------------------------|
|---------------------------------5-----|
|--7--7-7-----7----7----7-7-7-7-7---7-5-|
|---------------------------------------|


   S  S S  S  S S  S  S S S S S S S S S
|-------0-------0-----------0-----0-----|
|----10------10------10---8-----8-----8-|
|---------------------------------------|
|-10------10------10----9-----9-----9---|
|---------------------------------------|
|---------------------------------------|
|
|  PM------------------------------------
|  S  S E     E    E    S S S S S S S S
|---------------------------------------|
|---------------------------------------|
|---------------------------------------|
|---------------------------------------|
|--3--3-3-----3----3----3-3-3-3-3-3-3-3-|
|---------------------------------------|


  S S S S S S S S  S  S S  S  S S  S  S
|-----0-----0-----------0-------0--------|
|---7-----7-----7----10------10------10\-|
|----------------------------------------|
|-7-----7-----7---10------10------10-----|
|----------------------------------------|
|----------------------------------------|
|
|------------------------------------|
| S S E   E   E    E    S  S  S S  S  S
|----------------------------------------|
|----------------------------------------|
|----------------------------------------|
|----------------------------------------|
|-3-5-5---5---5----5----5--5--5-5--5--5--|
|----------------------------------------|


  S S S S S S S S   S  S S  S  S S  S  S
|-----0-----0------------0-------0-------|
|---5-----5-----5-----12------12------12-|
|----------------------------------------|
|-5-----5-----5---/12------12------12----|
|----------------------------------------|
|----------------------------------------|
|
| PM--------------------------------------
| S S E   E   E     S  S E     S S  S  S
|----------------------------------------|
|----------------------------------------|
|----------------------------------------|
|----------------------------------------|
|-5-7-7---7---7-----7--7-7-----7-7--7--7-|
|----------------------------------------|


   S  S S  S  S S  S  S S S S S S S S S
|-------0-------0-----------0-----0-----||
|----10------10------10---8-----8-----8-||
|---------------------------------------||
|-10------10------10----9-----9-----9---||
|---------------------------------------||
|---------------------------------------||
|
|-------------------------------------|
|  S  S E     E    E    S S S S S S S S
|---------------------------------------||
|---------------------------------------||
|---------------------------------------||
|---------------------------------5-----||
|--7--7-7-----7----7----7-7-7-7-7---7-5-||
|---------------------------------------||


 Chorus
  $
    G                 A
  Gtrs I, II
  E E E E E E E E   E  E E  E E  E E  E
|---7---7---7---7-|----9----9----9----9-|
|---8---8---8---8-|---10---10---10---10-|
|---7---7---7---7-|----9----9----9----9-|
|---9---9---9---9-|---11---11---11---11-|
|-----------------|---------------------|
|-----------------|---------------------|


    Am7                   G         A
  E  E E  E E  E E  E   E E S S e S  S  e S  S  e
|--------12---12---12-|---7---7-7----9--9----9--9--|
|---13---13---13---13-|---8---8-8---10-10---10-10--|
|---12---12---12---12-|---7---7-7----9--9----9--9--|
|---14---14---14---14-|---9-----9------11------11--|
|---------------------|----------------------------|
|---------------------|----------------------------|


    G                 A
  E E E E E E E E   E  E E  E E  E E  E
|---7---7---7---7-|----9----9----9----9-|
|---8---8---8---8-|---10---10---10---10-|
|---7---7---7---7-|----9----9----9----9-|
|---9---9---9---9-|---11---11---11---11-|
|-----------------|---------------------|
|-----------------|---------------------|


                                           To Coda
    Am7                   G         A
  E  E E  E E  E E  E   E E S S e S  S  e S  S  e
|--------12---12---12-|---7---7-7----9--9----9--9---||
|---13---13---13---13-|---8---8-8---10-10---10-10--o||
|---12---12---12---12-|---7---7-7----9--9----9--9---||
|---14---14---14---14-|---9-----9------11------11---||
|---------------------|----------------------------o||
|---------------------|-----------------------------||


 Guitar Solo
  N.C.
  Gtr III (El. Gtr. w/ light dist.)
        <
        ~~~~~~~~~~~~~~~~~~~~~~~~~~~~~~~~~~~~~
  Q  E  E  +H        +E    +Q.      +H
|-----------------|-------------------------|
|-----------------|-------------------------|
|------14-(14)----|-(14)-([14])---([14])----|
|-----------------|-------------------------|
|-----------------|-------------------------|
|-----------------|-------------------------|


 ~~~~~~~~                              ~~~~~~~~~~~~
    +W              +E         +E     +Q      +H
|---------------|-------------------------------------|
|---------------|-------------------------------------|
|-([14])--------|-([14])b15==([14])r([14])--([14])----|
|---------------|-------------------------------------|
|---------------|-------------------------------------|
|---------------|-------------------------------------|


     ~~~~~~~~~~~~~~~~~~~~~~~~~~~~~~~~~~~~~~~~~~~~~~~~~~~~
    +W              +W              +W              +W
|---------------|---------------|---------------|-----------|
|---------------|---------------|---------------|-----------|
|-([14])--------|-([14])--------|-([14])--------|-([14])----|
|---------------|---------------|---------------|-----------|
|---------------|---------------|---------------|-----------|
|---------------|---------------|---------------|-----------|


     ~~~~~~~~~~~~~~~~~~~~~~~~~~~~~~~~~~~~~~~~~~~~~~~~
    +W                                          +H.                             +E.        S
|-------------------------------------------|-------------------------------------------------|
|-------------------------------------------|-------------------------------------------------|
|-([14])------------------------------------|-([14])--------------------------([14])p=====12h=|
|-------------------------------------------|-------------------------------------------------|
|-------------------------------------------|-------------------------------------------------|
|-------------------------------------------|-------------------------------------------------|
|
| Gtr I
|    S    S S  S  S S  S  S S S S S S S S S      S   S S S S S S S  S  S S  S    S   S  S  S
|-----------0-------0-----------0-----0-----|----------0-----0-----------0-----------0--------|
|--------10------10------10---8-----8-----8-|--------7-----7-----7----10--------10--------10\-|
|-------------------------------------------|-------------------------------------------------|
|---10--------10------10----9-----9-----9---|----7-------7-----7---10------10----------10-----|
|-------------------------------------------|-------------------------------------------------|
|-------------------------------------------|-------------------------------------------------|


                    ~~~~~~~~~~~~~~~~~~
    Q              +Q           +Q             E.       S
|---------------------------------------------------------|
|-------------------------------------------------------x-|
|-[14]b15========([14])-------([14])r-------------------x-|
|---------------------------------------------------------|
|---------------------------------------------------------|
|---------------------------------------------------------|
|
|   S      S S S    S   S S S    S     S S  S  S  S  S  S
|------------0----------0----------------0--------0-------|
|----------5--------5-------5---------12------12-------12-|
|---------------------------------------------------------|
|---5----------5----------5----/12---------12-------12----|
|---------------------------------------------------------|
|---------------------------------------------------------|


               |----3-----|     |----3----|    |----3----|
   S  S  E     E    E     E     E    E    E    E    E    E
|-15----15----15---15----15----15---15---15---15---15---15---|
|-15-15-15----15---15----15----15---15---15---15---15---15---|
|------------------------------------------------------------|
|------------------------------------------------------------|
|------------------------------------------------------------|
|------------------------------------------------------------|
|
|  S  S  S  S  S S     S     S  S S    S    S  S S    S    S
|--------0-------0---------------------0---------0-----------|
|----10-------10------------10----8------------8-----------8-|
|------------------------------------------------------------|
|-10-------10---------10--------9-----------9---------9------|
|------------------------------------------------------------|
|------------------------------------------------------------|


   |----3-----|
   E     E    E     S  S  S  S  S  S  S  S  S  S  S  S
|-15----15---15----15-15-15-15-15-15-15-15-15-15-15-15-|
|-15----15---15----15-15-15-15-15-15-15-15-15-15-15-15-|
|------------------------------------------------------|
|------------------------------------------------------|
|------------------------------------------------------|
|------------------------------------------------------|
|
|  S  S    S     S  S  S  S  S  S  S  S  S  S  S  S  S
|----------0-----------0--------------0--------0-------|
|----10------------10-------10-----8--------8--------8-|
|------------------------------------------------------|
|-10------------10-------10-----9--------9--------9----|
|------------------------------------------------------|
|------------------------------------------------------|


                       |----3-----|     |---3----|
   +Q        S S S  S  E     E    E     e   E    E
|-(15)-------8-----15-15----15---15----15--------------|
|-(15)-------8-----15-15----15---15----15---x----x-----|
|-------------------------------------------x----x-----|
|------------------------------------------------------|
|------------------------------------------------------|
|------------------------------------------------------|
|
|   S  S S S S S S  S  S  S    S     S  S S    S    S
|--------0-----0---------------0----------0------------|
|------7-----7------7----10------------10----------10\-|
|------------------------------------------------------|
|---7------7-----7----10------------10--------10-------|
|------------------------------------------------------|
|------------------------------------------------------|


  |----3----|    |----3----|     |----3-----|
  E    E    E    E    E    E     E     E    E     S  S  S  S
|-----15---15---15---15---15----------15---15----15-15-15-15--|
|-----15---15---15---15---15----------15---15----15-15-15-15--|
|-------------------------------------------------------------|
|-------------------------------------------------------------|
|-------------------------------------------------------------|
|-------------------------------------------------------------|
|
| S S    S    S  S S    S    S   S  S    S     S  S  S  S  S
|--------0---------0---------------------0-----------0--------|
|---5------------5-----------5-----12------------12-------12--|
|-------------------------------------------------------------|
|-5-----------5---------5------/12------------12-------12-----|
|-------------------------------------------------------------|
|-------------------------------------------------------------|


   |----3-----|     |----3-----|     |----3----|    |----3----|
   E     E    E     E    E     E     E    E    E    E    E    E
|-15----15---15----15---15----15----15---15---15---15---15---15---|
|-15----15---15----15---15----15----15---15---15---15---15---15---|
|-----------------------------------------------------------------|
|-----------------------------------------------------------------|
|-----------------------------------------------------------------|
|-----------------------------------------------------------------|
|
|  S  S    S     S  S S     S     S  S S    S    S  S S    S    S
|----------0----------0---------------------0---------0-----------|
|----10------------10------------10----8------------8-----------8-|
|-----------------------------------------------------------------|
|-10------------10---------10--------9-----------9---------9------|
|-----------------------------------------------------------------|
|-----------------------------------------------------------------|


   |----3-----|     |----3-----|     |-3--|
   E     E    E     E    E     E     E    Q      +Q
|-15----15---15----15---15----15----15---15-----(15)s=======|
|-15----15---15----15---15----15----15---15-----(15)--------|
|-----------------------------------------------------------|
|-----------------------------------------------------------|
|-----------------------------------------------------------|
|-----------------------------------------------------------|
|
|  S  S    S     S  S S     S     S  S S    S S   S  S S S
|----------0----------0---------------------0--------0------|
|----10------------10------------10----8----------8------8--|
|-----------------------------------------------------------|
|-10------------10---------10--------9--------9--------9----|
|-----------------------------------------------------------|
|-----------------------------------------------------------|


                                               |-------3-------|       |--------3---------|
  Q.           E    +Q           E    E        Q      Q        Q       Q       Q          Q
|-2s==========14---(14)---------------------|-----------------------------------------------------|
|--------------------------------x----------|-19-----19-------19------19------19---------19-------|
|-------------------------------------------|-----------------------------------------------------|
|-------------------------------------x-----|-19-----19-------19------19------19---------19-------|
|-------------------------------------------|-----------------------------------------------------|
|-------------------------------------------|-----------------------------------------------------|
|
| S S S S S S  S S   S   S S  S  S S  S  S     S S S    S S S    S S   S  S S     S  S S     S  S
|-----0-----0--------------0-------0--------|------0--------0---------------0----------0----------|
|---7-----7------7------10------10------10\-|----5--------5--------5-----12---------12---------12-|
|-------------------------------------------|-----------------------------------------------------|
|-7-----7------7----10-------10------10-----|--5--------5--------5---/12---------12---------12----|
|-------------------------------------------|-----------------------------------------------------|
|-------------------------------------------|-----------------------------------------------------|


                                      D.S. al Coda
   |--------3---------|
   Q       Q          Q        S  E.      Q
|----------------------------------------------------||
|-19------19---------19-------19s17------17----------||
|----------------------------------------------------||
|-19------19---------19-------19s17------17----------||
|----------------------------------------------------||
|----------------------------------------------------||
|
|  S  S S     S  S S     S  S  S  S  S S  S S S S
|-------0----------0-----------------0------0--------||
|----10---------10---------10-----8-------8-----8----||
|----------------------------------------------------||
|-10---------10---------10-----9-------9------9------||
|----------------------------------------------------||
|----------------------------------------------------||


 Outro
  &
  N.C.
  Gtr III
   H                      S  S  S  S Q
|-----------------------------------------------|
|-----------------------------------------------|
|------------------------------12-14------------|
|---------------------------14------------------|
|-----------------------------------------------|
|-----------------------------------------------|
|
| Gtr I
|  S  S  S  S  S  S  S  S S  S  S  S S  S  S  S
|--------0--------0-------------0-------0-------|
|----10-------10-------10----8-------8--------8-|
|-----------------------------------------------|
|-10-------10-------10----9--------9-------9----|
|-----------------------------------------------|
|-----------------------------------------------|
|
| Gtr II
|  PM---|         PM    PM   PM    PM   PM---|
|  S  S  S  S  S  S  S  S S  S  S  S S  S  S  S
|-----------------------------------------------|
|-----------------------------------------------|
|-----------------------------------------------|
|-14-14-12-14----12----14---12----14---12-12-12-|
|-----------------------------------------------|
|-----------------------------------------------|


                        |---3---|     |-----3-----|
  H                     Q       E     E     E     E
|-------------------------------------------------------|
|-------------------------------------------------------|
|------------------------------------12----14----14-----|
|------------------------------14-----------------------|
|-------------------------------------------------------|
|-------------------------------------------------------|
|
| S  S  S  S S  S S  S  S  S S     S  S  S     S     S
|-------0-------0------------0-----------0--------------|
|----7-------7-------7----10---------10-------------10\-|
|-------------------------------------------------------|
|-7--------7------7----10---------10----------10--------|
|-------------------------------------------------------|
|-------------------------------------------------------|
|
|    PM|        PM   PM    PM      PM    PM---------|
| S  S  S  S S  S S  S  S  S S     S  S  S     S     S
|-------------------------------------------------------|
|-------------------------------------------------------|
|-------------------------------------------------------|
|---12-12-14---12---14----12------14----12----12-----0--|
|-------------------------------------------------------|
|-------------------------------------------------------|


   H                      Q          E.        S
|------------------------------------------------|
|------------------------------------------------|
|------------------------------------------------|
|---------------------------------------------14-|
|------------------------------------------------|
|------------------------------------------------|
|
|  S  S  S  S S  S S  S   S  S S  S  S   S  S  S
|--------0-------0-------------0---------0-------|
|-----5-------5-------5-----12------12--------12-|
|------------------------------------------------|
|--5--------5------5----/12------12--------12----|
|------------------------------------------------|
|------------------------------------------------|
|
|  PM---|        PM   PM     PM   PM     PM---|
|  S  S  S  S S  S S  S   S  S S  S  S   S  S  S
|------------------------------------------------|
|------------------------------------------------|
|------------------------------------------------|
|-14-14-12-14---12---14-----12---14-----12-12-12-|
|------------------------------------------------|
|------------------------------------------------|


   |-----3-----|     |-------3-------|
   E     E     E     E     E         E    H
|--------------------------------------------------------------|
|--------------------------------------------------------------|
|-12----14----14----14----12b12.5------------------------------|
|--------------------------------------------------------------|
|--------------------------------------------------------------|
|--------------------------------------------------------------|
|
|  S  S     S     S  S  S          S    S S  S S  S S  S S S
|-----------0-----------0----------------------0-------0-------|
|----10-------------10-----------------10----8------8------8---|
|--------------------------------------------------------------|
|-10-------------10---------------10------9-------9------9-----|
|--------------------------------------------------------------|
|--------------------------------------------------------------|
|
|     PM---|            PM              PM   PM   PM   PM  PM
|  S  S     S     S  S  S          S    S S  S S  S S  S S S
|--------------------------------------------------------------|
|--------------------------------------------------------------|
|--------------------------------------------------------------|
|----12----12----14----12--------------14---12---14---12---0---|
|--------------------------------------------------------------|
|--------------------------------------------------------------|


                |-----3-----|     |------3-------|
   E.        S  E     E     E     E     E        E    Q
|----------------------------------------------------------------|
|----------------------------------------------------------------|
|--------------12----14----14----14----12b12.5-------------------|
|-----------14---------------------------------------------------|
|----------------------------------------------------------------|
|----------------------------------------------------------------|
|
|  S   S  S  S  S  S     S     S  S  S         S    S S  S  S  S
|---------0--------0---------------------------0---------0-------|
|-----10-------10-------------10-----8----------------8--------8-|
|----------------------------------------------------------------|
|-10--------10----------10--------9-----------------9-------9----|
|----------------------------------------------------------------|
|----------------------------------------------------------------|
|
|  PM----|         PM          PM    PM             PM   PM---|
|  S   S  S  S  S  S     S     S  S  S         S    S S  S  S  S
|----------------------------------------------------------------|
|----------------------------------------------------------------|
|----------------------------------------------------------------|
|-14--14-12-14----12----------14----12-------------14---12-12-12-|
|----------------------------------------------------------------|
|----------------------------------------------------------------|


                         |----3-----|     |-------3--------|
  Q          E.       S  E     E    E     E     E          E
|----------------------------------------------------------------|
|----------------------------------------------------------------|
|-----------------------12----14---14----14----12b12.5-----------|
|--------------------14-----------------------------------14-----|
|----------------------------------------------------------------|
|----------------------------------------------------------------|
|
| S  S  S  S S   S S  S  S  S    S     S  S  S          S     S
|-------0--------0---------------0-----------0-------------------|
|----7-------7--------7----10------------10------------------10\-|
|----------------------------------------------------------------|
|-7--------7-------7----10------------10---------------10--------|
|----------------------------------------------------------------|
|----------------------------------------------------------------|
|
|    PM|         PM   PM    PM         PM    PM--------------|
| S  S  S  S S   S S  S  S  S    S     S  S  S          S     S
|----------------------------------------------------------------|
|----------------------------------------------------------------|
|----------------------------------------------------------------|
|---12-12-14----12---14----12---------14----12---------12-----0--|
|----------------------------------------------------------------|
|----------------------------------------------------------------|


                           |----3-----|
   Q          E.       S   E     E    E     E        E
|---------------------------------------------------------|
|---------------------------------------------------------|
|-------------------------12----14---14----14b16----------|
|---------------------14----------------------------------|
|---------------------------------------------------------|
|---------------------------------------------------------|
|
|  S  S  S  S S   S S  S   S  S    S     S  S     S  S  S
|--------0--------0----------------0--------------0-------|
|-----5-------5--------5-----12------------12----------12-|
|---------------------------------------------------------|
|--5--------5-------5----/12------------12----------12----|
|---------------------------------------------------------|
|---------------------------------------------------------|
|
|  PM---|         PM   PM     PM         PM       PM---|
|  S  S  S  S S   S S  S   S  S    S     S  S     S  S  S
|---------------------------------------------------------|
|---------------------------------------------------------|
|---------------------------------------------------------|
|-14-14-12-14----12---14-----12---------14-------12-12-12-|
|---------------------------------------------------------|
|---------------------------------------------------------|


                            |----3-----|
   Q           E.        S  E     E    E     S  S E
|-------------------------------------------------------|
|--------------------------15---------15--------0-------|
|--------------------------12----14---15----15----------|
|-----------------------14------------------------------|
|-------------------------------------------------------|
|-------------------------------------------------------|
|
|  S  S  S  S  S   S  S  S  S  S    S     S  S  S S S
|--------0---------0----------------0-----------0-------|
|----10-------10--------10-----8-------------8------8---|
|-------------------------------------------------------|
|-10-------10--------10-----9-------------9-------9-----|
|-------------------------------------------------------|
|-------------------------------------------------------|
|
|     PM|          PM    PM    PM         PM    PM  PM
|  S  S  S  S  S   S  S  S  S  S    S     S  S  S S S
|-------------------------------------------------------|
|-------------------------------------------------------|
|-------------------------------------------------------|
|----12-12-14-----12----14----12---------14----12---0---|
|-------------------------------------------------------|
|-------------------------------------------------------|


                            |----3-----|
   Q           E.        S  E     E    E     E          E
|------------------------------------------------------------|
|------------------------------------------------------------|
|--------------------------12----14---14----12b12.5----------|
|-----------------------14-----------------------------------|
|------------------------------------------------------------|
|------------------------------------------------------------|
|
|  S  S  S  S  S   S  S  S  S  S    S     S  S       S  S  S
|--------0---------0----------------0----------------0-------|
|----10-------10--------10-----8-------------8-------------8-|
|------------------------------------------------------------|
|-10-------10--------10-----9-------------9-------------9----|
|------------------------------------------------------------|
|------------------------------------------------------------|
|
|  PM---|          PM    PM    PM         PM         PM---|
|  S  S  S  S  S   S  S  S  S  S    S     S  S       S  S  S
|------------------------------------------------------------|
|------------------------------------------------------------|
|------------------------------------------------------------|
|-14-14-12-14-----12----14----12---------14---------12-12-12-|
|------------------------------------------------------------|
|------------------------------------------------------------|


                         |----3-----|     |------3------|
  Q          E.       S  E     E    E     S     +S      S  e
|----------------------------------------------------------------|
|----------------------------------------------------------------|
|-----------------------12----14---14----14b15r(14)p===12--------|
|--------------------14-----------------------------------14-----|
|----------------------------------------------------------------|
|----------------------------------------------------------------|
|
| S  S  S  S S   S S  S  S  S    S     S  S          S     S  S
|-------0--------0---------------0-------------------0-----------|
|----7-------7--------7----10------------10------------------10\-|
|----------------------------------------------------------------|
|-7--------7-------7----10------------10------------------10-----|
|----------------------------------------------------------------|
|----------------------------------------------------------------|
|
|    PM|         PM   PM    PM         PM            PM------|
| S  S  S  S S   S S  S  S  S    S     S  S          S     S  S
|----------------------------------------------------------------|
|----------------------------------------------------------------|
|----------------------------------------------------------------|
|---12-12-14----12---14----12---------14------------12----12--0--|
|----------------------------------------------------------------|
|----------------------------------------------------------------|


                           |----3-----|     |------3------|
   Q          E.       S   E     E    E     S     +S      S  e
|-----------------------------------------------------------------|
|-----------------------------------------------------------------|
|-------------------------12----14---14----14b15r(14)p===12-------|
|---------------------14------------------------------------14----|
|-----------------------------------------------------------------|
|-----------------------------------------------------------------|
|
|  S  S  S  S S   S S  S   S  S    S     S  S          S     S  S
|--------0--------0----------------0-------------------0----------|
|-----5-------5--------5-----12------------12------------------12-|
|-----------------------------------------------------------------|
|--5--------5-------5----/12------------12------------------12----|
|-----------------------------------------------------------------|
|-----------------------------------------------------------------|
|
|  PM---|         PM   PM     PM         PM            PM------|
|  S  S  S  S S   S S  S   S  S    S     S  S          S     S  S
|-----------------------------------------------------------------|
|-----------------------------------------------------------------|
|-----------------------------------------------------------------|
|-14-14-12-14----12---14-----12---------14------------12----12-12-|
|-----------------------------------------------------------------|
|-----------------------------------------------------------------|


                                              PM
   Q           E     e    S  S  e    E.       S
|-------------------------------------------------|
|-------------------------------------------------|
|---------------------------12-14-----------------|
|-------------------14-----------------------14---|
|-------------------------------------------------|
|-------------------------------------------------|
|
|  S  S  S  S  S  S  S  S S  S  S  S S   S S  S
|--------0--------0-------------0--------0--------|
|----10-------10-------10----8-------8--------8---|
|-------------------------------------------------|
|-10-------10-------10----9--------9-------9------|
|-------------------------------------------------|
|-------------------------------------------------|
|
|     PM|         PM    PM   PM    PM    PM   PM
|  S  S  S  S  S  S  S  S S  S  S  S S   S S  S
|-------------------------------------------------|
|-------------------------------------------------|
|-------------------------------------------------|
|----12-12-14----12----14---12----14----12----0---|
|-------------------------------------------------|
|-------------------------------------------------|


                                                    PM
   |-----3-----|
   E     E     E     S      S  E    Q         E     S  S
|--------------------------------------------------------|
|--------------------------------------------------------|
|-12----14----14----14pb15p12-------------------------12-|
|-----------------------------14-------------------14----|
|--------------------------------------------------------|
|--------------------------------------------------------|
|
|  S  S     S     S  S      S  S  S S  S S  S S  S  S  S
|-----------0---------------0------------0-------0-------|
|----10-------------10-----------10----8------8--------8-|
|--------------------------------------------------------|
|-10-------------10-----------10----9-------9-------9----|
|--------------------------------------------------------|
|--------------------------------------------------------|
|
|  PM------|                PM    PM   PM   PM   PM---|
|  S  S     S     S  S      S  S  S S  S S  S S  S  S  S
|--------------------------------------------------------|
|--------------------------------------------------------|
|--------------------------------------------------------|
|-14-14----12----14--------12----14---12---14---12-12-12-|
|--------------------------------------------------------|
|--------------------------------------------------------|


                                                               PM
   |-----3-----|
   E     E     E     E       E     S  S   S  S       E.        S
|------------------------------------(0)----------------------------|
|----------------------------------------15-------------------------|
|-14----14----14----14b15-------------------12b12.5-----------------|
|-------------------------------------------------------------14----|
|-------------------------------------------------------------------|
|-------------------------------------------------------------------|
|
|  S  S     S     S  S     S S  S  S  S   S  S       S   S  S  S
|-----------0--------------0--------------0--------------0----------|
|-----7--------------7----------7----10-------------10--------10\---|
|-------------------------------------------------------------------|
|--7--------------7----------7----10--------10-------------10-------|
|-------------------------------------------------------------------|
|-------------------------------------------------------------------|
|
|     PM---|               PM   PM    PM     PM          PM---|
|  S  S     S     S  S     S S  S  S  S   S  S       S   S  S  S
|-------------------------------------------------------------------|
|-------------------------------------------------------------------|
|-------------------------------------------------------------------|
|----12----12----14-------12---14----12-----14----------12-12--0----|
|-------------------------------------------------------------------|
|-------------------------------------------------------------------|


                                  PM
   |-----3-----|
   E     E     E         E.       S   S  E    S     S  S  S  S
|--------------------------------------------------------------|
|--------------------------------------------------------------|
|-12----14----14b14.5----------------12-14---14b15-------12-14-|
|--------------------------------14--12---------------14-------|
|--------------------------------------------------------------|
|--------------------------------------------------------------|
|
|  S  S     S          S S   S S  S   S  S S  S     S  S  S  S
|-----------0----------------0-------------0-----------0-------|
|-----5------------------5--------5-----12---------12-------12-|
|--------------------------------------------------------------|
|--5-------------------5-------5----/12------12----------12----|
|--------------------------------------------------------------|
|--------------------------------------------------------------|
|
|  PM------|                 PM   PM     PM   PM       PM---|
|  S  S     S          S S   S S  S   S  S S  S     S  S  S  S
|--------------------------------------------------------------|
|--------------------------------------------------------------|
|--------------------------------------------------------------|
|-14-14----12---------14----12---14-----12---14-------12-12-12-|
|--------------------------------------------------------------|
|--------------------------------------------------------------|


                               |----3-----|
   +S   S  S  S  +S   S  S  S  E     E    E     e    E
|----------------------------------------------------------|
|----------------------------------------------12----------|
|-(14)-14----12-(12)-14-14----12----14---14----------------|
|---------14---------------14------------------------------|
|----------------------------------------------------------|
|----------------------------------------------------------|
|
|   S   S  S  S   S   S  S  S  S  S    S     S  S  S S S
|----------0----------0----------------0-----------0-------|
|------10--------10--------10-----8-------------8------8---|
|----------------------------------------------------------|
|--10--------10---------10-----9-------------9-------9-----|
|----------------------------------------------------------|
|----------------------------------------------------------|
|
|       PM|           PM    PM    PM         PM    PM  PM
|   S   S  S  S   S   S  S  S  S  S    S     S  S  S S S
|----------------------------------------------------------|
|----------------------------------------------------------|
|----------------------------------------------------------|
|------12-12-14------12----14----12---------14----12---0---|
|----------------------------------------------------------|
|----------------------------------------------------------|


                                            |-----3-----|
   E     S  S  S  T  T   S    S  Q          E     E     E
|-------15---------------------------------------------15----|
|------------------------------------------------------------|
|----------14-14-------<12>-[14]-----------------12----------|
|----------------12h14---------------------14----------------|
|------------------------------------------------------------|
|------------------------------------------------------------|
|
|  S  S  S  S  S  S      S    S  S  S S  S  S  S     S     S
|--------0--------0-------------------0--------0-------------|
|----10-------10-------------10-----8-------8--------------8-|
|------------------------------------------------------------|
|-10-------10-----------10-------9-------9-----------9-------|
|------------------------------------------------------------|
|------------------------------------------------------------|
|
|  PM---|         PM          PM    PM   PM    PM---------|
|  S  S  S  S  S  S      S    S  S  S S  S  S  S     S     S
|------------------------------------------------------------|
|------------------------------------------------------------|
|------------------------------------------------------------|
|-14-14-12-14----12----------14----12---14----12----12----12-|
|------------------------------------------------------------|
|------------------------------------------------------------|


   |-----3-----|                |------3------|     |-----3-----|
   E     E     E     e    E     S  S     E    E     E     E     E
|--------------------------------------------15----15------------------|
|----------------------------------------------------------------------|
|-12----------12----14------------------12---------------12----12------|
|-------14------------------------14---------------------14------------|
|----------------------------------------------------------------------|
|----------------------------------------------------------------------|
|
|  S  S     S     S  S  S S  S  S     S    S     S  S  S     S     S
|-----------0-----------0------------------0-----------0---------------|
|-----7--------------7-------7-------10------------10-------------10\--|
|----------------------------------------------------------------------|
|--7--------------7-------7----10---------------10----------10---------|
|----------------------------------------------------------------------|
|----------------------------------------------------------------------|
|
|     PM---|            PM   PM       PM         PM    PM---------|
|  S  S     S     S  S  S S  S  S     S    S     S  S  S     S     S
|----------------------------------------------------------------------|
|----------------------------------------------------------------------|
|----------------------------------------------------------------------|
|----12----12----14----12---14-------12---------14----12----12-----0---|
|----------------------------------------------------------------------|
|----------------------------------------------------------------------|


               |---3----|
   S  E     S  S  S     Q        S  S  S  S  S  S  E
|----15----------------15-------------------------------|
|----------------15-------------------14-12-12-12-14----|
|-14-------12----15-------------12----14-12-12-12-14----|
|-------------14-------------------14-------------------|
|-------------------------------------------------------|
|-------------------------------------------------------|
|
|  S  S  S  S  S     S    S  S   S  S  S  S  S  S  S  S
|--------0-----------0-----------------0--------0-------|
|-----5--------5-------------5-----12-------12-------12-|
|-------------------------------------------------------|
|--5--------5-------------5----/12-------12-------12----|
|-------------------------------------------------------|
|-------------------------------------------------------|
|
|  PM---|            PM      PM     PM    PM    PM---|
|  S  S  S  S  S     S    S  S   S  S  S  S  S  S  S  S
|-------------------------------------------------------|
|-------------------------------------------------------|
|-------------------------------------------------------|
|-14-14-12-14-------12------14-----12----14----12-12-12-|
|-------------------------------------------------------|
|-------------------------------------------------------|


          TP    TP          TP         TP
   S  S   E     Q           Q          Q
|-------/15----15----------15---------15--------|
|-15-14-/15----15----------15---------15--------|
|-15-14-----------------------------------------|
|-----------------------------------------------|
|-----------------------------------------------|
|-----------------------------------------------|
|
|  S  S   S  S  S  S  S  S  S  S S  S  S  S S S
|---------0--------0-------------0--------0-----|
|----10--------10-------10-----8-------8------8-|
|-----------------------------------------------|
|-10--------10-------10-----9-------9-------9---|
|-----------------------------------------------|
|-----------------------------------------------|
|
|     PM|          PM    PM    PM   PM    PM  PM
|  S  S   S  S  S  S  S  S  S  S S  S  S  S S S
|-----------------------------------------------|
|-----------------------------------------------|
|-----------------------------------------------|
|----12--12-14----12----14----12---14----12---0-|
|-----------------------------------------------|
|-----------------------------------------------|


   TP                                             TP
   W                                              W
|-15-------------------------------------------|-15--------------------------------------------|
|-15-------------------------------------------|-15--------------------------------------------|
|----------------------------------------------|-----------------------------------------------|
|----------------------------------------------|-----------------------------------------------|
|----------------------------------------------|-----------------------------------------------|
|----------------------------------------------|-----------------------------------------------|
|
|  S  S  S  S  S  S  S  S S  S S  S S  S  S  S    S  S  S  S S  S S  S  S  S S  S  S  S  S  S
|--------0--------0------------0-------0-------|--------0-------0------------0--------0--------|
|----10-------10-------10----8------8--------8-|-----7-------7-------7----10------10-------10\-|
|----------------------------------------------|-----------------------------------------------|
|-10-------10-------10----9-------9-------9----|--7--------7------7----10------10-------10-----|
|----------------------------------------------|-----------------------------------------------|
|----------------------------------------------|-----------------------------------------------|
|
|  PM---|         PM    PM   PM   PM   PM---|        PM|        PM   PM    PM   PM    PM--------
|  S  S  S  S  S  S  S  S S  S S  S S  S  S  S    S  S  S  S S  S S  S  S  S S  S  S  S  S  S
|----------------------------------------------|-----------------------------------------------|
|----------------------------------------------|-----------------------------------------------|
|----------------------------------------------|-----------------------------------------------|
|-14-14-12-14----12----14---12---14---12-12-12-|----12-12-14---12---14----12---14----12-12--0--|
|----------------------------------------------|-----------------------------------------------|
|----------------------------------------------|-----------------------------------------------|


   Q           S  S S  S   S  S E     Q
|-15\-------------x-x--x---x--x------------------|
|-15\-------------x-x--x---x--x------------------|
|------------------------------------------------|
|------------------------------------------------|
|------------------------------------------------|
|------------------------------------------------|
|
|  S   S  S  S S  S S  S   S  S S  S  S  S  S  S
|---------0-------0-------------0--------0-------|
|------5-------5-------5-----12------12-------12-|
|------------------------------------------------|
|--5---------5------5----/12------12-------12----|
|------------------------------------------------|
|------------------------------------------------|
|
|--------|        PM   PM     PM   PM    PM---|
|  S   S  S  S S  S S  S   S  S S  S  S  S  S  S
|------------------------------------------------|
|------------------------------------------------|
|------------------------------------------------|
|-14--14-12-14---12---14-----12---14----12-12-12-|
|------------------------------------------------|
|------------------------------------------------|


                               |--3---| |----3----|
   H                      S  S S S    S E    E    E
|-----------------------------------------------------|
|----------------------------3-3-3----3-3----3----3---|
|-----------------------------------------------------|
|-----------------------------------------------------|
|-----------------------------------------------------|
|-----------------------------------------------------|
|
|  S  S  S  S  S  S  S  S S  S S    S   S  S    S   S
|--------0--------0------------0-----------0----------|
|----10-------10-------10----8----------8-----------8-|
|-----------------------------------------------------|
|-10-------10-------10----9---------9-----------9-----|
|-----------------------------------------------------|
|-----------------------------------------------------|
|
|     PM|         PM    PM   PM     PM     PM----------
|  S  S  S  S  S  S  S  S S  S S    S   S  S    S   S
|-----------------------------------------------------|
|-----------------------------------------------------|
|-----------------------------------------------------|
|----12-12-14----12----14---12-----14-----12---12---0-|
|-----------------------------------------------------|
|-----------------------------------------------------|


   |----3----|                |---3----|    |-3--|
   E    E    E     E     E    E    E   E    E    Q
|----------------------------------------------------------|
|--3----3----3-----3---------------3---3----0h===3---------|
|----------------------------------------------------------|
|----------------------------------------------------------|
|----------------------------------------------------------|
|----------------------------------------------------------|
|
|  S  S    S    S  S  S  S  S S  S   S    S S  S    S  S
|----------0----------0--------------0---------0-----------|
|----10-----------10-------10----8----------8----------8---|
|----------------------------------------------------------|
|-10-----------10-------10----9-----------9---------9------|
|----------------------------------------------------------|
|----------------------------------------------------------|
|
|---------|           PM    PM   PM       PM   PM-----|
|  S  S    S    S  S  S  S  S S  S   S    S S  S    S  S
|----------------------------------------------------------|
|----------------------------------------------------------|
|----------------------------------------------------------|
|-14-14---12---14----12----14---12-------14---12---12-12---|
|----------------------------------------------------------|
|----------------------------------------------------------|


              |---3----|                |----3----|
   E     S S  E   E    E    E     E     E    E    E
|-------------------------------------------------------|
|--------3-3------3----3----------------3----3----------|
|---------------------------4-----4---------------4-----|
|-------------------------------------------------------|
|-------------------------------------------------------|
|-------------------------------------------------------|
|
|  S  S  S S  S S    S   S  S  S  S  S  S  S    S    S
|--------0------0-----------------0--------0------------|
|-----7-------7----------7----10-------10-----------10\-|
|-------------------------------------------------------|
|--7-------7---------7-----10-------10---------10-------|
|-------------------------------------------------------|
|-------------------------------------------------------|
|
|  PM|        PM     PM     PM    PM    PM---------------
|  S  S  S S  S S    S   S  S  S  S  S  S  S    S    S
|-------------------------------------------------------|
|-------------------------------------------------------|
|-------------------------------------------------------|
|-12-12-14---12-----14-----12----14----12-12----0---14--|
|-------------------------------------------------------|
|-------------------------------------------------------|


                          |----3-----|     |----3----|
   Q           E    S S  +E     E    E     E    E    E
|---------------------------------------------------------*|
|-------------------3-3--(3)----3----3-----3----3----3----*|
|---------------------------------------------------------*|
|--5\-----------------------------------------------------*|
|---------------------------------------------------------*|
|---------------------------------------------------------*|
|
|  S   S  S S  S S  S S   S   S    S    S  S  S    S    S
|---------0------0-----------------0----------0-----------*|
|------5-------5------5------12-----------12-----------12-*|
|---------------------------------------------------------*|
|--5--------5-------5---/12------------12---------12------*|
|---------------------------------------------------------*|
|---------------------------------------------------------*|
|
|-----|        PM   PM    PM       PM      PM-----|
|  S   S  S S  S S  S S   S   S    S    S  S  S    S    S
|-------------------------------------------------------5-*|
|---------------------------------------------------------*|
|---------------------------------------------------------*|
|-14--12-14---12---14----12-------14------12-12---12------*|
|---------------------------------------------------------*|
|---------------------------------------------------------*|


Duration Legend
---------------
W - whole; H - half; Q - quarter; E - 8th; S - 16th; T - 32nd; X - 64th; a - acciaccatura
+ - note tied to previous; . - note dotted; .. - note double dotted
Uncapitalized letters represent notes that are staccato (1/2 duration)
Irregular groupings are notated above the duration line
Duration letters will always appear directly above the note/fret number it represents the
duration for.  Duration letters with no fret number below them represent rests.  Multi-
bar rests are notated in the form Wxn, where n is the number of bars to rest for.  Low
melody durations appear below the staff

Tablature Legend
----------------
 h   - hammer-on
 p   - pull-off
 b   - bend
 pb  - pre-bend
 r   - bend release (if no number after the r, then release immediately)
 /\  - slide into or out of (from/to "nowhere")
 s   - legato slide
 S   - shift slide
  - natural harmonic
[n]  - artificial harmonic
n(n) - tapped harmonic
 ~   - vibrato
 tr  - trill
 T   - tap
 TP  - trem. picking
 PM  - palm muting
\n/  - tremolo bar dip; n = amount to dip
 \n  - tremolo bar down
 n/  - tremolo bar up
/n\  - tremolo bar inverted dip
 =   - hold bend; also acts as connecting device for hammers/pulls
 <>  - volume swell (louder/softer)
 x   - on rhythm slash represents muted slash
 o   - on rhythm slash represents single note slash

Misc Legend
-----------
 |  - bar
||  - double bar
||o - repeat start
o|| - repeat end
*|  - double bar (ending)
 :  - bar (freetime)
 $  - Segno
 &  - Coda
Tempo markers -  = BPM(8/16=s8/s16), where s8 = swing 8ths, s16 = swing 16ths
Suggest correction
Creating personal tab
Creating personal tab
You can edit any tab online and save it as your Personal.

You can edit, replace or remove any tab part or add personal notes – all changes will be seen only by you.

Personal tabs can be accessed anytime from any device, even offline.
Learn more »
Give kudos to tab author, rate the tab!
1 2 3 4 5
comments
print report bad tab
guest
You may want to rate the tab now too:
select rating
Wanna post a correction for this tab? Suggest correction