Oops, an error
Loading. Please wait.

Contact Tab

version 1
version 1

Intro

Whole song

Interactive

410 views 3 this week
1 commentread comment
1 2 3 4 5
please rate
add to favorites
launch autoscroll
font size
0
reset
how to read this tab
guitar tuner
Autoscroll
slow
fast
+/-
esc
set tempo
stop
Help us to improve Ultimate-Guitar.com Take our survey!
×
Author
tried to figure the intro chord out since no one else had any postings,




                                 THE POLICE
                                  "Contact"
                                   
                               from the album
                              Reggatta de Blanc




e||---------3------------3------------3-----------3-----------|
B||----0-3----------0-3----------0-3---------0-3--------------|
G||---1---4--------1---4--------1---4-------1---4-------------|
D||--2------------2------------2-----------2------------------|
A||-----------------------------------------------------------|
E||-----------------------------------------------------------|







Suggest correction
Give kudos to tab author, rate the tab!
1 2 3 4 5
comments
print report bad tab
1 comment total.
0 reply
Antonivs 196 wrote on August 18 2008, 12:10 am

e||----------4-------------4------------4-----------4---------|
B||----0-3-0---------0-3-0--------0-3-0-------0-3-0-----------|
G||---1------------1------------1-----------1-----------------|
D||--2------------2------------2-----------2------------------|
A||-----------------------------------------------------------|
E||-----------------------------------------------------------|

guest
You may want to rate the tab now too:
select rating
Wanna post a correction for this tab? Suggest correction