Oops, an error
Loading. Please wait.

Driven To Tears Tab

version 1
version 1

Solo

Interactive

3,362 views 12 this week
no commentswrite comment
1 2 3 4 5
please rate
add to favorites
launch autoscroll
font size
0
reset
how to read this tab
guitar tuner
Tab Pro tools
  • play this tab
  • loop segment
  • change instrument
  • show fretboard
  • metronome
×
Best way to learn
"Driven To Tears"
Autoscroll
slow
fast
+/-
esc
set tempo
stop
Contributor
Difficulty
intermediate
-----------------------------------------------------------------------------
                             Driven To Tears - The Police
-----------------------------------------------------------------------------
Tabbed by: [Username]
If anything sounds incorrect, email me at metallica71@live.com

Tuning: Standard


Guitar Solo:

E|-----------10-----|-11------16-15-14-----|---14------------|
B|---------8------9-|----10----------------|-----------------|
G|-9-----9----------|----------------------|-----------------|
D|------------------|----------------------|-----------------|
A|------------------|----------------------|-----------------|
E|------------------|----------------------|-----------------|

E|--------------------------------|--------------------------|
B|--15----16----------------------|--------------------------|
G|-----14----14--------14-12------|--------------------------|
D|----------------------------14--|-13--11-----12----(11)----|
A|--------------------------------|--------------------------|
E|--------------------------------|--------------------------|

E|-------------------------|---------------------|
B|-----------14b15---------|-12------------------|
G|-------------------------|-----13-12-----------|
D|-------0-----------------|---------------------|
A|-------------------------|---------------------|
E|-------------------------|---------------------|

************************************

| /   slide up
| \   slide down
| h   hammer-on
| p   pull-off
| ~   vibrato
| +   harmonic
| x   Mute note
| b   Bend
| pb  Pre-bend
| br  Bend release
| pbr Pre-bend release
| brb Bend release bend

************************************
comments
We did not receive enough feedback on this tab! Please rate:
print report bad tab
1 2 3 4 5
I want to post or [tab]
guest
You may want to rate the tab now too:
select rating
Please do not post tabs as comments. Select "correction" instead!