Oops, an error
Loading. Please wait.

Invisible Sun Tab

version 1
version 1

Whole song

Interactive

10,077 views 33 this week
4 commentsread comments
1 2 3 4 5
accurate
x 3
add to favorites
launch autoscroll
font size
0
reset
how to read this tab
guitar tuner
Autoscroll
slow
fast
+/-
esc
set tempo
stop
Help us to improve Ultimate-Guitar.com Take our survey!
×
Author
 OK, this is the Tabs for Invisible Sun, one of my most favored songs by The Police. Ive 
seen chords for this song. and i wanted to be the first to post tabs for this song.

The Intro/Verse is somewhat off i tried my hardest to make it sound perfect but thats as 
as i can get it to sound.

I spent a lot of time on the Solo and im sure the Bends are wrong but just go along with 
If the bends don't sound completely right then try to adjust the bends correctly and 
me know..


Intro/Verse;
00:12-01:11
|----------------------|
|--/5-7-5--2-4---4-4---|
|----------------------| X15
|----------------------|
|----------------------|
|----------------------|

~~~~~~~~~~~~~~~~~~~~~~~~~~~~~~~~~~~~~~~~~~~~~~~~~~~~~~~~~~~~~~~~~~~~~~~~~~~~

Chorus;
01:12-01:31
|---------x-x-x-x-x-x-x-x-x-x-x-x-x-x-x-x-x-x-x-x-x-x-x-x-x-x-x-x-x-x-x-x-|
|--/3-5-3-----------------------------------------------------------------|
|-------------------------------------------------------------------------|
|-------------------------------------------------------------------------|
|-------------------------------------------------------------------------|
|-------------------------------------------------------------------------|
!!!!SEE BOTTOM FOR CHORUS!!!!

~~~~~~~~~~~~~~~~~~~~~~~~~~~~~~~~~~~~~~~~~~~~~~~~~~~~~~~~~~~~~~~~~~~~~~~~~~~~

Intro/Verse;
01:32-01:43
|----------------------|
|--/5-7-5--2-4---4-4---|
|----------------------| X3
|----------------------|
|----------------------|
|----------------------|

~~~~~~~~~~~~~~~~~~~~~~~~~~~~~~~~~~~~~~~~~~~~~~~~~~~~~~~~~~~~~~~~~~~~~~~~~~~~

Chorus;
01:44-02:03
|---------x-x-x-x-x-x-x-x-x-x-x-x-x-x-x-x-x-x-x-x-x-x-x-x-x-x-x-x-x-x-x-x-|
|--/3-5-3-----------------------------------------------------------------|
|-------------------------------------------------------------------------|
|-------------------------------------------------------------------------|
|-------------------------------------------------------------------------|
|-------------------------------------------------------------------------|
!!!!SEE BOTTOM FOR CHORUS!!!!

~~~~~~~~~~~~~~~~~~~~~~~~~~~~~~~~~~~~~~~~~~~~~~~~~~~~~~~~~~~~~~~~~~~~~~~~~~~~

Solo;
02:04-02:19
|--16fb-16fb-16fb~~~16hb15-16hb15-16hb15-16hb15-16hb15-16hb--16fb\--|
|-------------------------------------------------------------------|
|-------------------------------------------------------------------|
|-------------------------------------------------------------------|
|-------------------------------------------------------------------|
|-------------------------------------------------------------------|

|-20fb~~20fb~~20fb~~16hb-16~~16hb15-16hb15-16hb15-16hb15-16hb15-16hb-16fb--|
|--------------------------------------------------------------------------|
|--------------------------------------------------------------------------|
|--------------------------------------------------------------------------|
|--------------------------------------------------------------------------|
|--------------------------------------------------------------------------|

|--16-(16)-15-14-12~~~~~~|
|------------------------|
|------------------------|
|------------------------|
|------------------------|
|------------------------|

~~~~~~~~~~~~~~~~~~~~~~~~~~~~~~~~~~~~~~~~~~~~~~~~~~~~~~~~~~~~~~~~~~~~~~~~~~~~

Intro/Verse;
02:20-02:31
|----------------------|
|--/5-7-5--2-4---4-4---|
|----------------------| X3
|----------------------|
|----------------------|
|----------------------|

~~~~~~~~~~~~~~~~~~~~~~~~~~~~~~~~~~~~~~~~~~~~~~~~~~~~~~~~~~~~~~~~~~~~~~~~~~~~

Chorus;
02:32-02:51
|---------x-x-x-x-x-x-x-x-x-x-x-x-x-x-x-x-x-x-x-x-x-x-x-x-x-x-x-x-x-x-x-x-|
|--/3-5-3-----------------------------------------------------------------|
|-------------------------------------------------------------------------|
|-------------------------------------------------------------------------|
|-------------------------------------------------------------------------|
|-------------------------------------------------------------------------|
!!!!SEE BOTTOM FOR CHORUS!!!!

~~~~~~~~~~~~~~~~~~~~~~~~~~~~~~~~~~~~~~~~~~~~~~~~~~~~~~~~~~~~~~~~~~~~~~~~~~~~

Solo 2;
02:52-03:10


~~~~~~~~~~~~~~~~~~~~~~~~~~~~~~~~~~~~~~~~~~~~~~~~~~~~~~~~~~~~~~~~~~~~~~~~~~~~

Intro/Verse;
03:11-03:46
|----------------------|
|--/5-7-5--2-4---4-4---|
|----------------------| X10 (I think 9-11 is where you play this part)
|----------------------|
|----------------------|
|----------------------|

~~~~~~~~~~~~~~~~~~~~~~~~~~~~~~~~~~~~~~~~~~~~~~~~~~~~~~~~~~~~~~~~~~~~~~~~~~~~

Ok, i actually have to explain the Chorus its simple but it will be better if i explain it to you!

I'll tab it out then i will explain it.

Chorus;
01:12-01:31, 01:44-02:03, 02:32-02;51---------------------------------------|
|---------x-x-x-x-x-x-x-x-x-x-x-x-x-x-x-x-x-x-x-x-x-x-x-x-x-x-x-x-x-x-x-x---|
|--/3-5-3-------------------------------------------------------------------|
|---------------------------------------------------------------------------|
|---------------------------------------------------------------------------|
|---------------------------------------------------------------------------|
|---------------------------------------------------------------------------|

Ok, im going to explain the Chorus to you now.
   PART 1:
       Ok, the part "|--/3-5-3--|" it actually fades out really fast but    you can 
hear it tough so still play that part.
   PART 2:
       There is an echoing clicking noise and thats just whats-his-faces guitar muting 
the high E string. Now heres the hard part i ned to explain:

EXPLANATION:
    Ok, there is actually 60 strummed mutings and every 15 of them you start at around 
15th fret you slide down the neck to the 12th fret while muting still so now if you get 
going to break it really easily.

so start at the 15th fret and slide really slow to the 12th fret until you count 15 
strums. and do that 4 times for each chorus because 4X15=60

Pretty Simple EH??????

~~~~~~~~~~~~~~~~~~~~~~~~~~~~~~~~~~~~~~~~~~~~~~~~~~~~~~~~~~~~~~~~~~~~~~~~~~~~

FIN...??

Rate My Tab!!!! thx..

got questions???
Email me at kylef1994@msn.com
Suggest correction
Give kudos to tab author, rate the tab!
1 2 3 4 5
comments
print report bad tab
4 comments total. Showing first comments.
+2 reply
OtaconNachos 115 wrote on January 20 2008, 11:41 pm

5h7 sounds real off.

+2 reply
boredness 36 wrote on January 21 2008, 10:30 pm

I know i screwed up heres the correction:

Intro/Verse;
00:12-01:11
|----------------------|
|--/4-6-4--1-3---3-3---|
|----------------------| X15
|----------------------|
|----------------------|
|----------------------|

0 reply
ncl1994 10 wrote on February 15 2009, 09:45 am

With that correction it's a very accurate tab. Dunno how ya didb't get the verse when you did such a good job of the chorus ;)
I couldn't even realise any guitaring in the chorus lol so I was just playing the chorus synth bit:
|-----------------------|
|-----------------------|
|---------0-------------| X 6
|-0-3-0-3-----0-3-2-----|
|-------------------3---|
|-----------3---------3-|

guest
You may want to rate the tab now too:
select rating
Please do not post tabs as comments. Select "correction" instead!