Oops, an error
Loading. Please wait.

King Of Pain Tab

version 1
version 1

Solo

Whole song

Interactive

10,286 views 1 this week
5 commentsread comments
1 2 3 4 5
x 10
add to favorites
launch autoscroll
font size
0
reset
how to read this tab
guitar tuner
Autoscroll
slow
fast
+/-
esc
set tempo
stop
Help us to improve Ultimate-Guitar.com Take our survey!
×
Author
-------------------------------------------------------------------------------
                             King of Pain - Police
-------------------------------------------------------------------------------
Tabbed by: Jesse Benedick
Email: Cartguysam@aol.com

Tuning: Standard
 
e|--------9-10-12-12-------10-12-12--------9-10-12-14-12-------10-12-12------|
B|--10-12------------10-12-----------10-12---------------10-12---------------|
G|---------------------------------------------------------------------------|
D|---------------------------------------------------------------------------|
A|---------------------------------------------------------------------------|
E|---------------------------------------------------------------------------|

e|--------9-10-12-12-------10-12-12--------9-10-12-10-9----------------------|
B|--10-12------------10-12-----------10-12--------------12~------------------|
G|---------------------------------------------------------------------------|
D|---------------------------------------------------------------------------|
A|---------------------------------------------------------------------------|
E|---------------------------------------------------------------------------|

| /  slide up
| \  slide down
| h  hammer-on
| p  pull-off
| ~  vibrato
| +  harmonic
| x  Mute note
===============================================================================
Suggest correction
comments
print report bad tab
5 comments total. Showing first comments.
0 reply
vinnie107 10 Sep 14, 2007 04:32 PM

This is 100% Correct.
Well done.

0 reply
belavista man 2,247 Feb 18, 2008 07:29 AM

Well done.

+1 reply
rygor42 31 Apr 24, 2009 05:11 PM

youre missing a note.
e|-----9-10-12-12-----10--12-12-----9-10-12-14-12-----10--12-12|
B|10-12----------10-12--10-----10-12-------------10-12--10-----|

e|-----9-10-12-12-----10--12-12-----9-10-12-10-9-------------|
B|10-12----------10-12--10-----10-12-------------12~---------|

theres no timing, but youll notice i put another 10 on the 'b' string between the ten and twelve on the 'e'

guest
You may want to rate the tab now too:
select rating
Wanna post a correction for this tab? Suggest correction