Oops, an error
Loading. Please wait.

King Of Pain Tab

version 2
version 2

Whole song

Interactive

1,135 views 3 this week
no commentswrite comment
1 2 3 4 5
please rate
add to favorites
launch autoscroll
font size
0
reset
how to read this tab
guitar tuner
Autoscroll
slow
fast
+/-
esc
set tempo
stop
Help us to improve Ultimate-Guitar.com Take our survey!
×
Author
Difficulty
intermediate
Here is an alternate version I came up with that works if you are doing an acoustic show 
and need easier versions of the chords to play while you are singing. ENJOY!

                                                              There's a
e|----------------|----------------|----------------|------------------|
B|----------------|----------------|----------------|------------------|
G|----4-----2-----|----4-----2-----|----4-----2-----|--4-----2---------|
D|----4-----2-----|----4-----2-----|----4-----2-----|--4-----2---------|
A|----2-----0-----|----2-----0-----|----2-----0-----|--2-----0---------|
E|----------------|----------------|----------------|------------------|

  little black   spot on the     sun     today
e|----------------|----------------|----------------|------------------|
B|----------------|----------------|----------------|------------------|
G|-4-----------2--|--------------4-|-----2----------|--4------2--------|
D|-4-----------2--|--------------4-|-----2----------|--4------2--------|
A|-2-----------0--|--------------2-|-----0----------|--2------0--------|
E|----------------|----------------|----------------|------------------|

             It’s the same old thing as yes - ter-day.
e|----------------|----------------|----------------|--2---------------|
B|----------------|---3------------|-------3--------|--2-------2-------|
G|--4-----2-------|------------2---|--------------2-|--1-------1-------|
D|--4-----2-------|------------2---|--------------2-|----------2-------|
A|--2-----0-------|---2--------0---|-------2------0-|------------------|
E|----------------|---3------------|-------3--------|------------------|

             There’s a black hat caught in the high   tree top
e|--2-------------|----------------|----------------|------------------|
B|--2-----2-------|----------------|----------------|------------------|
G|--1-----1-------|----4---------2-|--------------4-|-----2------------|
D|--------2-------|----4---------2-|--------------4-|-----2------------|
A|----------------|----2---------0-|--------------2-|-----0------------|
E|----------------|----------------|----------------|------------------|

                               There’s a flag pole rag   and the wind
e|----------------|----------------|----------------|------------------|
B|----------------|----------------|-----3----------|----------------3-|
G|--4-----2-------|----4-----2-----|---------------2|------------------|
D|--4-----2-------|----4-----2-----|---------------2|------------------|
A|--2-----0-------|----2-----0-----|-----2---------0|----------------2-|
E|----------------|----------------|-----3----------|----------------3-|

   won’t stop                                    I have stood here
e|----------------|----2-----------|----2-----------|------------------|
B|----------------|----2-----2-----|----2-----2-----|------------------|
G|-------2--------|----1-----1-----|----1-----1-----|---7--------------|
D|-------2--------|----------2-----|----------2-----|---7--------------|
A|-------0--------|----------------|----------------|---5--------------|
E|----------------|----------------|----------------|------------------|

    before   inside the pou-ring   rain with the world turning circles
e|----------------|----------------|----------------|------------------|
B|----------------|----------------|----------------|------------------|
G|----9-----------|------11------12|--------------7-|-----------9------|
D|----9-----------|------12------12|--------------7-|-----------9------|
A|----7-----------|------9-------10|--------------5-|-----------7------|
E|----------------|----------------|----------------|------------------|

  running ‘round my   brain  I guess I’m always hoping that you’ll end
e|----------------|----------------|----------------|------------------|
B|----------------|----------------|----------------|------------------|
G|----------11----|-12-------------|---7---------9--|---------------11-|
D-----------12----|-12-------------|---7---------9--|---------------12-|
A|----------9-----|-10-------------|---5---------7--|---------------9--|
E|----------------|----------------|----------------|------------------|

  this   reign, but it’s my destiny to be the king of   pain.  There’s a
e|----------------|----------------|----------------|------------------|
B|----------------|----------------|----------------|------------------|
G|-----12---------|------7-------9-|------------11--|-12---------------|
D|-----12---------|------7-------9-|------------12--|-12---------------|
A|-----10---------|------5-------7-|------------9---|-10---------------|
E|----------------|----------------|----------------|------------------|

1  lit-tle   black   spot    on     the  sun    to -  day
2 fos- sil   that’s trapped  in      a   high   cliff wall
e|----------9--10-|-12-----12------|---10--------12-|--12--------------|
B|-10--12---------|----10-----10---|12-------10-----|------------------|
G|----------------|----------------|----------------|------------------|
D|----------------|----------------|----------------|------------------|
A|----------------|----------------|----------------|------------------|
E|----------------|----------------|----------------|------------------|
  PM..................................................................

repeat this riff 3 times,then on the 4th time it's

That’s  my    soul up      there
e|-----------9--10|--12---10----9--|----------------|------------------|
B|-10---12--------|----------------|-12-------------|------------------|
G|----------------|----------------|----------------|------------------|
D|----------------|----------------|----------------|------------------|
A|----------------|----------------|----------------|------------------|
E|----------------|----------------|----------------|------------------|

the next riff is:
   i have
   stood   here     be  -  fore            in  -  side     the    pour
e|----------------|----------------|----------------|------------------|
B|----------------|----------------|----------------|------------------|
G|---7---7---7---7|--7---7---7---7-|-7---7----7---7-|-7---7---7---7---7|
D|---7---7---7---7|--7---7---7---7-|-7---7----7---7-|-7---7---7---7---7|
A|---5---5---5---5|--5---5---5---5-|-5---5----5---5-|-5---5---5---5---5|
E|----------------|----------------|----------------|------------------|
  PM...................................................................

   -            ing                 rain   with the   world     tur    -
e|----------------|----------------|----------------|------------------|
B|----------------|----------------|----------------|------------------|
G|---7---7---7---7|---7----7---7---|-12----12-------|---7----7---7----7|
D|---7---7---7---7|---7----7---7---|-12----12-------|---7----7---7----7|
A|---5---5---5---5|---5----5---5---|-10----10-------|---5----5---5----5|
E|----------------|----------------|----------------|------------------|
  PM.............................                    PM................
   ing    cir      -       cles     run  -  ning     ‘round
e|----------------|----------------|----------------|------------------|
B|----------------|----------------|----------------|------------------|
G|-7---7---7---7--|-7---7---7---7--|-7---7---7----7-|---7---7---7---7--|
D|-7---7---7---7--|-7---7---7---7--|-7---7---7----7-|---7---7---7---7--|
A|-5---5---5---5--|-5---5---5---5--|-5---5---5----5-|---5---5---5---5--|
E|----------------|----------------|----------------|------------------|
 PM....................................................................

   my              brain.    I guess  I’m     al   -   ways     hop
e|----------------|----------------|----------------|------------------|
B|----------------|----------------|----------------|------------------|
G|-7---7---7---7--|--12------12----|---7---7---7---7|----7---7---7---7-|
D|-7---7---7---7--|--12------12----|---7---7---7---7|----7---7---7---7-|
A|-5---5---5---5--|--10------10----|---5---5---5---5|----5---5---5---5-|
E|----------------|----------------|----------------|------------------|
 PM...............                  PM.................................

  -       ing      that     you’ll      end              this
e|----------------|----------------|----------------|------------------|
B|----------------|----------------|----------------|------------------|
G|-7---7---7---7--|--7---7-----7---|-7---7---7---7--|-7---7---7---7---7|
D|-7---7---7---7--|--7---7-----7---|-7---7---7---7--|-7---7---7---7---7|
A|-5---5---5---5--|--5---5-----5---|-5---5---5---5--|-5---5---5---5---5|
E|----------------|----------------|----------------|------------------|

    reign,     but it’s my      des  -  ti   -  ny               to
e|----------------|----------------|----------------|------------------|
B|----------------|----------------|----------------|------------------|
G|----12-------12-|------7---7---7-|-7---7---7---7--|-7---7---7---7---7|
D|----10-------10-|------7---7---7-|-7---7---7---7--|-7---7---7---7---7|
A|----10-------10-|------5---5---5-|-5---5---5---5--|-5---5---5---5---5|
E|----------------|----------------|----------------|------------------|
                                          Start part 2 here vv
   be     the     king               of               pain     There’s a
e|----------------|----------------|----------------|------------------|
B|----------------|----------------|----------------|------------------|
G|-7---7---7---7--|-7---7---7---7--|-7---7---7---7--|--12--------------|
D|-7---7---7---7--|-7---7---7---7--|-7---7---7---7--|--10--------------|
A|-5---5---5---5--|-5---5---5---5--|-5---5---5---5--|--10--------------|
E|----------------|----------------|----------------|------------------|

  king              of               pain.            There’s a king
e|----------------|----------------|----------------|------------------|
B|----------------|----------------|----------------|------------------|
G|--7---7---7---7-|-7---7---7---7--|--12------12/14-|------------------|
D|--7---7---7---7-|-7---7---7---7--|--10------12/14-|------------------|
A|--5---5---5---5-|-5---5---5---5--|--10------10/12-|------------------|
E|----------------|----------------|----------------|------------------|

on a throne     with his eyes     torn      out,    there’s a blind man
e|----------------|----------------|----------------|------------------|
B|----------------|----------------|----------------|------------------|
G|----------------|------------12--|-----12--/--14--|------------------|
D|----------------|------------12--|-----12--/--14--|------------------|
A|----------------|------------10--|-----10--/--12--|------------------|
E|----------------|----------------|----------------|------------------|

looking for a shadow of doubt    There’s a rich man sleeping on a golden
e|----------------|----------------|----------------|------------------|
B|----------------|----------------|----------------|------------------|
G|-------------12-|--12----/----14-|----------------|-------------12---|
D|-------------12-|--12----/----14-|----------------|-------------12---|
A|-------------10-|--10----/----12-|----------------|-------------10---|
E|----------------|----------------|----------------|------------------|

   bed      There’s a skeleton choking on a crust of             bread
e|----------------|----------------|----------------|-----9---10---12--|
B|----------------|----------------|--------------10|-12---------------|
G|-12---/---14----|----------------|---------12-----|------------------|
D|-12---/---14----|----------------|---------12-----|------------------|
A|-10---/---12----|----------------|---------10-----|------------------|
E|----------------|----------------|----------------|------------------|
                                                  *SOLO*
e|-12-------------|--10---------12-|---12-----------|----9---10--------|
B|--------10---12-|--------10------|---------10---12|------------------|
G|----------------|----------------|----------------|------------------|
D|----------------|----------------|----------------|------------------|
A|----------------|----------------|----------------|------------------|
E|----------------|----------------|----------------|------------------|

                                          King of pain.
e|--12/14\12------|------10--------|-12---12--------|-9---10---12---12-|
B|-------------10-|--12--------10--|-----------10-12|------------------|
G|----------------|----------------|----------------|------------------|
D|----------------|----------------|----------------|------------------|
A|----------------|----------------|----------------|------------------|
E|----------------|----------------|----------------|------------------|

e|--12------------|-10---------12--|--12------------|---9---10---12--10|
B|-------10---12--|------10--------|--------10---12-|------------------|
G|----------------|----------------|----------------|------------------|
D|----------------|----------------|----------------|------------------|
A|----------------|----------------|----------------|------------------|
E|----------------|----------------|----------------|------------------|

e|--9-------------|----------------|----------------|------------------|
B|------12--------|----------------|----------------|------------------|
G|----------------|----------------|----------------|--10-12-12-12-12--|
D|----------------|-12-12-12-12-12-|-12-12-12-------|--10-10-10-10-10--|
A|----------------|-10-10-10-10-10-|-10-10-10-------|------------------|
E|----------------|----------------|----------------|------------------|
                  PM...................................................

e|----------------|----------------|----------------|------------------|
B|----------------|----------------|----------------|------------------|
G|-12-12-12-10-12-|-12-12-12-12-12-|12--10-12-12-12-|12-12-12-12-10-12-|
D|-10-10-10-10-10-|-10-10-10-10-10-|10--10-10-10-10-|10-10-10-10-10-10-|
A|----------------|----------------|----------------|------------------|
E|----------------|----------------|----------------|------------------|
 PM....................................................................

e|----------------|----------------|----------------|------------------|
B|----------------|----------------|----------------|------------------|
G|-12-12-12-12-12-|-12-------------|----------------|------------------|
D|-10-10-10-10-10-|-10-------------|----------------|------------------|
A|----------------|----------------|----------------|------------------|
E|----------------|----------------|----------------|------------------|
 PM...................
                                                              There’s a
e|----------------|----------------|----------------|------------------|
B|----------------|----------------|----------------|------------------|
G|-10-12-12-12-12-|-12-12-12-10-12-|-12-12-12-12-12-|-12---------------|
D|-10-10-10-10-10-|-10-10-10-10-10-|-10-10-10-10-10-|-10---------------|
A|----------------|----------------|----------------|------------------|
E|----------------|----------------|----------------|------------------|
 PM......................................................

   red    fox                torn____       by        a       hunts
e|----------------|----------------|----------------|------------------|
B|----------------|----------------|----------------|------------------|
G|-9---11--11--11-|-11--11---11--11|-9--11--11--11--|-11--11--11----11-|
D|-9----9---9---9-|--9---9----9---9|-9---9---9---9--|--9---9---9-----9-|
A|----------------|----------------|----------------|------------------|
E|----------------|----------------|----------------|------------------|
 PM....................................................................

  pack       That’s my soul up there
e|----------------|----------------|----------------|------------------|
B|----------------|----------------|----------------|------------------|
G|----------------|----------------|----------------|------------------|
D|----------------|----------------|----------------|------------------|
A|----------------|----------------|----------------|------------------|
E|----------------|----------------|----------------|------------------|

                                           There’s       a       black
e|----------------|----------------|----------------|------------------|
B|----------------|----------------|----------------|------------------|
G|-9-11-11-11-11--|-11-11-11-9-11--|-11-11----11----|-11--11--11---9---|
D|-9--9--9--9--9--|--9--9--9-9--9--|--9--9-----9----|--9---9---9---9---|
A|----------------|----------------|----------------|------------------|
E|----------------|----------------|----------------|------------------|
 PM....................................................................
      winged           gull          with    a        bro
e|----------------|----------------|----------------|------------------|
B|----------------|----------------|----------------|------------------|
G|-9----9----9--9-|-9--9--9---9---9|--9---9--9--9---|-9---9---9---9---9|
D|-9----9----9--9-|-9--9--9---9---9|--9---9--9--9---|-9---9---9---9---9|
A|----------------|----------------|----------------|------------------|
E|----------------|----------------|----------------|------------------|
 PM....................................................................
   ken             back                                That’s       my
e|----------------|----------------|----------------|------------------|
B|----------------|----------------|----------------|------------------|
G|-9---9---9---9--|--9----9---9---9|--9---9---9---9-|------------------|
D|-9---9---9---9--|--9----9---9---9|--9---9---9---9-|---11-----11---11-|
A|----------------|----------------|----------------|----9------9----9-|
E|----------------|----------------|----------------|------------------|
 PM....................................................................
                    soul             up               there
e|----------------|----------------|----------------|------------------|
B|----------------|----------------|----------------|------------------|
G|----------------|----------------|----------------|------------------|
D|-11--11--11-----|-11--11--11--11-|-11--11--11--11-|-11--11-----------|
A|--9---9---9-----|--9---9---9---9-|--9---9---9---9-|--9---9-----------|
E|----------------|----------------|----------------|------------------|
 PM...................................................................
                                           There’s        a
e|----------------|----------------|----------------|------------------|
B|----------------|----------------|----------------|------------------|
G|----------------|----------------|----------------|------------------|
D|-12-12-12-12-12-|-12-12-12-12-12-|-12-12---12-----|-12--12--12--12---|
A|-10-10-10-10-10-|-10-10-10-10-10-|-10-10---10-----|-10--10--10--10---|
E|----------------|----------------|----------------|------------------|
 PM...................................................................

   little black spot on the sun today       It’s the same old thing as
e|----------------|----------------|----------------|------------------|
B|----------------|----------------|----------------|------------------|
G|----------------|----------------|----------------|------------------|
D|----------------|----------------|----------------|------------------|
A|----------------|----------------|----------------|------------------|
E|----------------|----------------|----------------|------------------|

  yesterday                                                          I
e|----------------|----------------|----------------|------------------|
B|----------------|----------------|----------------|------------------|
G|----------------|----------------|----------------|------------------|
D|----------------|-12-12-12-12-12-|-12-12-12----12-|-12-12-12-12-12-12|
A|----------------|--9--9--9--9--9-|--9--9--9-----9-|--9--9--9--9--9--9|
E|----------------|----------------|----------------|------------------|
                  PM...................................................

  have    stood   here  be   -  fore              in   -   side    the
e|----------------|----------------|----------------|------------------|
B|----------------|----------------|----------------|------------------|
G|----------------|----------------|----------------|------------------|
D|-12---7---7---7-|-7---7---7---7--|--7---7---7---7-|--7---7-----7---7-|
A|--9---5---5---5-|-5---5---5---5--|--5---5---5---5-|--5---5-----5---5-|
E|----------------|----------------|----------------|------------------|
 PM...................................................................

     pour      -       ing              rain    with the world   turn  -
e|----------------|----------------|----------------|------------------|
B|----------------|----------------|----------------|------------------|
G|----------------|----------------|-----12------12-|------------------|
D|-7---7---7---7--|-7---7---7---7--|-7---12------12-|------7---7---7--7|
A|-5---5---5---5--|-5---5---5---5--|-5---10------10-|------5---5---5--5|
E|----------------|----------------|----------------|------------------|
 PM...................................                  PM.............

  ing   cir     -    cles   run    ning   ‘round        my
e|----------------|----------------|----------------|------------------|
B|----------------|----------------|----------------|------------------|
G|----------------|----------------|----------------|------------------|
D|-7--7--7--7--7--|-7--7--7--7--7--|-7--7----7--7--7|-7--7--7--7--7----|
A|-5--5--5--5--5--|-5--5--5--5--5--|-5--5----5--5--5|-5--5--5--5--5----|
E|----------------|----------------|----------------|------------------|
 PM................................................................

  brain.   I guess  I’m   al  - ways   hop     -     ing   that   you’ll
e|----------------|----------------|----------------|------------------|
B|----------------|----------------|----------------|------------------|
G|-12------12-----|----------------|----------------|------------------|
D|-12------10-----|--7--7--7--7--7-|-7--7---7--7--7-|-7--7--7---7---7--|
A|-10------10-----|--5--5--5--5--5-|-5--5---5--5--5-|-5--5--5---5---5--|
E|----------------|----------------|----------------|------------------|
                   PM..................................................

     end          this         reign,  but it’s my   des -  ti -  ny
e|----------------|----------------|----------------|------------------|
B|----------------|----------------|----------------|------------------|
G|----------------|--------------12|---12-----------|------------------|
D|-7--7--7--7--7--|-7--7--7--7---12|---12-------7--7|-7--7--7--7--7--7-|
A|-5--5--5--5--5--|-5--5--5--5---10|---10-------5--5|-5--5--5--5--5--5-|
E|----------------|----------------|----------------|------------------|
 PM...........................                PM......................
         to    be     the   king           of            pain
e|----------------|----------------|----------------|------------------|
B|----------------|----------------|----------------|------------------|
G|----------------|----------------|----------------|-----12-----------|
D|-7--7--7--7--7--|-7--7--7--7--7--|-7--7--7--7--7--|-7---12---------7-|
A|-5--5--5--5--5--|-5--5--5--5--5--|-5--5--5--5--5--|-5---10---------5-|
E|----------------|----------------|----------------|------------------|
 PM....................................................              ..
                                                                     (Repeat until fade)
e|----------------|----------------|----------------|------------------|
B|----------------|----------------|----------------|------------------|
G|----------------|----------------|----------------|------------------|
D|-7--7--7--7--7--|-7--7--7--7--7--|-7--7--7--7--7--|----7---7---7---7-|
A|-5--5--5--5--5--|-5--5--5--5--5--|-5--5--5--5--5--|----5---5---5---5-|
E|----------------|----------------|----------------|------------------|
 PM....................................................................

                       King     of     pain
e|----------------|----------------|----------------|------------------|
B|----------------|----------------|----------------|------------------|
G|----------------|-12----------12-|----------------|------------------|
D|--7---7---7---7-|-12----------12-|---------7----7-|-7--7--7--7--7--7-|
A|--5---5---5---5-|-10----------10-|---------5----5-|-5--5--5--5--5--5-|
E|----------------|----------------|----------------|------------------|
 PM..............                         PM..........................

e|----------------|----------------|----------------|------------------|
B|----------------|----------------|----------------|------------------|
G|----------------|----------------|----------------|------------------|
D|-7--7--7--7--7--|-7--7--7--------|----------------|------------------|
A|-5--5--5--5--5--|-5--5--5--------|----------------|------------------|
E|----------------|----------------|----------------|------------------|
 PM........................
Suggest correction
Give kudos to tab author, rate the tab!
1 2 3 4 5
comments
print report bad tab
guest
You may want to rate the tab now too:
select rating
Please do not post tabs as comments. Select "correction" instead!