Oops, an error
Loading. Please wait.

Low Life Tab

version 2
version 2

Intro

Whole song

Interactive

366 views 1 this week
no commentswrite comment
1 2 3 4 5
please rate
add to favorites
launch autoscroll
font size
0
reset
how to read this tab
guitar tuner
Autoscroll
slow
fast
+/-
esc
set tempo
stop
Help us to improve Ultimate-Guitar.com Take our survey!
×
Contributor
Difficulty
gnolivos 611
intermediate
                                    LOW LIFE
                            As recorded by The Police
                     (From the 1993 Album MESSAGE IN A BOX)

Transcribed by gnolivos

Gtr I (E A D G B E) - 'Standard Tuning'


   Intro (Guitar Pattern 1)

    Tempo=125
    4/4

    Gtr I                                                            2x
||--------------------------------------------------------------------||
||o----------14---------------10----------------12-------------7-----o||
||--------14----14---------11----11----------12----12--------7---7----||
||-----14----------14---11----------11----12----------12---7-------7--||
||o-12----------------9----------------10----------------5-----------o||
||--------------------------------------------------------------------||


|-------------------------------------------2-----|
|-------2---------------------------------3---3---|
|-----2---2---------2-----------4-------2-------2-|
|---2-------2-----4---4-------5---5---0-----------|
|-0-------------4-------4---5-------5-------------|
|-------------2-----------3-----------------------|


|------------------------------0----|
|-------------------------0----0----|
|-------2-----------1-----4s===6----|
|-----4---4-------2---2---5s===7----|
|---4-------4---2-------2-5s===7----|
|-2-----------0----------------5----|



 Verse - reggae style (Play w/ Guitar Pattern 1)

|----------9--------5--------7---------9----|
|---------10--------7--------8--------10----|
|----------9--------6--------7---------9----|
|---------11--------4--------9--------11----|
|-------------------------------------------|
|-------------------------------------------|
comments
We did not receive enough feedback on this tab! Please rate:
print report bad tab
1 2 3 4 5
I want to post or [tab]
guest
You may want to rate the tab now too:
select rating
Please do not post tabs as comments. Select "correction" instead!